>
 >
In A Hole Again

In A Hole Again Guitar Tabs

Tesla - In A Hole Again chords, tabs, tablatures, lyrics

Guitar lessons | Add/correct | Request | Top 50 tabs Artists:  A B C D E F G H I J K L M N O P Q R S T U V W X Y Z 0-9

In A Hole Again Guitar Tabs – Tesla

CD, Sheet music, Poster

Do you like In A Hole Again? Share with your friends now
Tabs


----------------------------------------------------
Tune: Drop C#

Intro
 Gtr. 1 (riff a)
|------12---------12---------12---------12---------------------|
|---12----12---12----12---12----12---12----12------------------|
|-9----------9----------9----------9---------.....-------------|
|--------------------------------------------------------------|
|--------------------------------------------------------------|
|--------------------------------------------------------------|

 Gtr. 2
|--------------------------------------------------------------|
|---------------------------------------------------N.H.-------|
|-----------------------------------------------------------|
|-5---------------5h7-7hb-7hbr-5-------------------------------|
|-------------5h7--------------------------5h7-----------------|
|--------------------------------------------------------------|


Verse
|------12---------12---------12---------12---------------------|
|---12----12---12----12---12----12---12----12------------------|
|-9----------9----------9----------9-------------(play x4)-----|
|--------------------------------------------------------------|
|--------------------------------------------------------------|
|--------------------------------------------------------------|


Pre Chorous
|------------------------------------------------------------------|
|------------------------------------------------------------------|
|------------------------------------------------------------------|
|-2-------2---2---x-5-5---5---5---0-------0---0---x-3-3---3---3----|
|-2-------2---2---x-5-5---5---5---0-------0---0---x-3-3---3---3----|
|-2-------2---2---x-5-5---5---5---0-------0---0---x-3-3---3---3----|

|------------------------------------------------------------------|
|------------------------------------------------------------------|
|------------------------------------------------------------------|
|-2-------2---2---x-5-5---5---5---0-------0---0---x-3---2---0---0--|
|-2-------2---2---x-5-5---5---5---0-------0---0---x-3---2---0---0--|
|-2-------2---2---x-5-5---5---5---0-------0---0---x-3---2---0---0--|

|------------------------------------------------------------------|
|------------------------------------------------------------------|
|------------------------------------------------------------------|
|-2-------2---2---x-5-5---5---5---0-------0---0---x-3-3---3---3----|
|-2-------2---2---x-5-5---5---5---0-------0---0---x-3-3---3---3----|
|-2-------2---2---x-5-5---5---5---0-------0---0---x-3-3---3---3----|

|------------------------------------------------------------------|
|------------------------------------------------------------------|
|------------------------------------------------------------------|
|-2-------2---2---x-5-5---5---5---0-------0---0---x-10-10--10--10--|
|-2-------2---2---x-5-5---5---5---0-------0---0---x-10-10--10--10--|
|-2-------2---2---x-5-5---5---5---0-------0---0---x-10-10--10--10--|


Chorous
 Gtr. 1 (play x2)
|-----------------------------------------------------------------|
|-----------------------------------------------------------------|
|-----------------------------------------------------------------|
|-9---9---9-9-9-7---7-7---7-7-7-5---5-5---5-5-5-4---4-4---4-4-4-4-|
|-9---9---9-9-9-7---7-7---7-7-7-5---5-5---5-5-5-4---4-4---4-4-4-4-|
|-9---9---9-9-9-7---7-7---7-7-7-5---5-5---5-5-5-4---4-4---4-4-4-4-|
|Gtr. 2
|-----------------------------------------------------------------|
|-----------------------------------------------------------------|
|-----4---4-7---9-----7---7-6---------4---4-7---9-----7---7-6-----|
|-----------------------------------------------------------------|
|-----------------------------------------------------------------|
|-----------------------------------------------------------------|


Before verse 2
 Gtr. 1 play riff a

 Gtr. 2
|--------------------------------------------------------------|
|--------------------------------------------------------------|
|---14fb-----------14r---12fb-12-------------------------------|
|--------------------------------14------14--------------------|
|-------------------------------------------12-----------------|
|---------------------------------------------------14---------|


Play verse, pre chorous & chorous like before


Bridge (riff b)
|-----------------------------------------------------------------|
|-----------------------------------------------------------------|
|-----------------------------------------------------------------|
|-----------------------------------------------------------------|
|-2-2---2-5-2---2---2---2-7---8---2-2---2-5-2---2---2---2-8h7-5---|
|-2-2---2-5-2---2---2---2-7---8---2-2---2-5-2---2---2---2-8h7-5---|

 (riff c)
|-----------------------------------------------------------------|
|-----------------------------------------------------------------|
|-----------------------------------------------------------------|
|-----------------------------------------------------------------|
|-2-2---2-5-2---2---2---2-7---8--(bend gradually)-----------------|
|-2-2---2-5-2---2---2---2-7---8---7-7-7-7-7-7-7-7-7hbr-5--7hbr-5--|


Solo 1
 Gtr. 1 play riff b(x3) & riff c

 Gtr. 2
|--------------------------------------------------------------|
|------------------------------------------------12b(1.5)------|
|----------------------------------6hb---6hb-------------------|
|-7hb------7-7-7-7hbr------5-----------------------------------|
|--------------------------------------------------------------|
|--------------------------------------------------------------|

|-----------------------------------------------------------------|
|-12b(1.5)-----12-12-11-------------------------------------------|
|-----------------------12b(1.5)--14-12----------12-14-14b(1.5)---|
|---------------------------------14-12-14----14------------------|
|-------------------------------------------------------------14\-|
|-------------------------------------------------------------14\-|


Solo 2
 Gtr. 1 play pre chorous

 Gtr. 2
|-----------12---------------15----------14------------------------|
|-15----12—15fb---15fb—15fb—18fb---18fb--17fb--17fb-17fb-16fb-16fb-|
|-14fbr-12---------------------------------------------------------|
|------------------------------------------------------------------|
|------------------------------------------------------------------|
|------------------------------------------------------------------|

|-12----12-15-12-15fb-15-------12----12-----------12--------------|
|-15fb--------------------15fb----15----12—----12----15fbr-15fb---|
|------------------------------------------14fb-------------------|
|-----------------------------------------------------------------|
|-----------------------------------------------------------------|
|-----------------------------------------------------------------|

|-27fb-17-15-17fb-----17fbr---15----17fbr-15----------------|
|--------------------------------17----------17b(1.5)-------|
|-----------------------------------------------------------|
|-----------------------------------------------------------|
|-----------------------------------------------------------|
|-----------------------------------------------------------|

|-19b(1.5)--19-18-17----17-19-17fbr-15----17----12------------|
|--------------------20----------------17-17------------------|
|--------------------------------------------------14fb-------|
|-------------------------------------------------------------|
|-------------------------------------------------------------|
|-------------------------------------------------------------|

|-12---------12--------------12---------12-17-15-17-15-17-17fb-15-|
|----15fb-------15-12-----12----15fb------------------------------|
|---------------------14fb----------------------------------------|
|-----------------------------------------------------------------|
|-----------------------------------------------------------------|
|-----------------------------------------------------------------|


Play chorous 3 (x2)


end of chourous 3
|--------------------------------------|
|--------------------------------------|
|--------------------------------------|
|-4-4-4-4-4-4-4-4-2--------------------|
|-4-4-4-4-4-4-4-4-2--------------------|
|-4-4-4-4-4-4-4-4-2--------------------|





Comments


Popular Tesla tabs & chords
Signs Chords
Games People Play Tabs
Gettin' Better 1 Tabs
Hang Tough Tabs
I Wanna Live Tabs
Little Suzi Intro Tabs
Love Song Intro 1 Tabs
Love Song Live Tabs
The Way It Is Tabs
What You Give 4 Tabs


Song lyrics



↑ Back to top | Tablatures and chords are parodies/interpretations of the original songs. You may use it for private study, scholarship, research or language learning purposes only
© 2014 AZChords.com Contact us | Privacy policy | DMCA | Add/correct tabs | Request tabs | Top 50 tabs