» » »

Tesla, Government Personnel Tabs (ver.1)

Artists:  A B C D E F G H I J K L M N O P Q R S T U V W X Y Z # 

Government Personnel Tabs (ver.1)

Tesla Tabs
Rating:
4/5 (1 vote)
Government Personnel lessons Tabs too difficult? Try these video lessons and learn fast
                --------------------------------------------------------------------------
                          TESLA - Government Personnel
--------------------------------------------------------------------------
                             Words by: Jeff Keith 
                            Music by: Frank Hannon            


Tuning:standard
Gtr.I (acoustic)
Gtr.II(acoustic)

Intro
  w/dog barking an whinning (approx. 8 sec)
Gtr.I          
e|----------|-----0-----0-0-|----0-----0-0-|----0-----0-0-|----0-------0---|
B|----------|-----1-----1-1-|----1-----1-1-|----1-----1-1-|----1-----1-----|
G|----------|-----2-----2-2-|----2-----2-2-|----2-----2-2-|----2-----------|
D|----------|-----2-----2-2-|----2-----2-2-|----2-----2-2-|----2-----------|
A|----------|--0-----0------|-0-----0------|-0-----0------|-0-----0--------|
E|----------|---------------|--------------|--------------|----------------|
Gtr.II
e|----------|---------------|--------------|--------------|------------0---|
B|----------|---------------|--------------|----1-----1-1-|----1-------1---|
G|----------|---------------|--------------|----2-----2-2-|----2-------2---|
D|----------|---------------|--------------|----2-----2-2-|----2-------2---|
A|----------|---------------|--------------|-0-----0------|-0-----0--------|
E|----------|---------------|--------------|--------------|----------------|

Gtr.I
e|-----------------|-------4-5-4-5-5/8-7-8-8/12-11-12-12/17-171717-17-1717\|
B|---------------4-|-5-4-5----------|-------------------|------------------|
G|-------4-5-4-5---|----------------|-------------------|------------------|
D|-7-6-7-----------|----------------|-------------------|------------------|
A|-----------------|----------------|-------------------|------------------|
E|-----------------|----------------|-------------------|------------------|
Gtr.II
e|-----0-----0-----|-----0-----0----|-----0-----0-------|-----0--------0---|
B|-----1-----1-----|-----1-----1----|-----1-----1-------|-----1--------1---|
G|-----2-----2-----|-----2-----2----|-----2-----2-------|-----2--------2---|
D|-----2-----2-----|-----2-----2----|-----2-----2-------|-----2--------2---|
A|--0-----0--------|--0-----0-------|--0-----0----------|--0-----0--0------|
E|-----------------|----------------|-------------------|------------------|

Verse
Both Gtrs.
        Go... 
e|------0------3--|------3---3--3--3--3-|
B|------1------3--|------2---2--2--2--2-|
G|------2------0--|------0---0--0--0--0-|
D|------2------0--|------0---0--0--0--0-|
A|--0-------------|--2------------------|
E|----------3-----|---------------------|

  government...
e|------0------3--|------3---3--3--3--3-|
B|------1------3--|------2---2--2--2--2-|
G|------2------0--|------0---0--0--0--0-|
D|------2------0--|------0---0--0--0--0-|
A|--0-------------|--2------------------|
E|----------3-----|---------------------|

  sit-tin'...
e|------0------3--|------3---3--3--3--3-|
B|------1------3--|------2---2--2--2--2-|
G|------2------0--|------0---0--0--0--0-|
D|------2------0--|------0---0--0--0--0-|
A|--0-------------|--2------------------|
E|----------3-----|---------------------|

   big...
e|------0------3--|------3---3--3--3--3-|------3---3--3--3--|
B|------1------3--|------2---2--2--2--2-|------3---3--3--3--|
G|------2------0--|------0---0--0--0--0-|------0---0--0--0--|
D|------2------0--|------0---0--0--0--0-|------0---0--0--0--|
A|--0-------------|--2------------------|------2---2--2--2--|
E|----------3-----|---------------------|--3----------------|

                        Give me...                              
e|--3--------------|------0------3---3--|-----------------------|
B|--3--------------|------1------3---3--|------3---3--3--3---3--|
G|--0--------------|------2------0---0--|------2---2--2--2---2--|
D|--0--------------|------2------0---0--|------0---0--0--0---0--|
A|--2-------0---2--|--0-----------------|------0---0--0--0---0--|
E|------3----------|---------3----------|--2--------------------|

        buffalo...
e|--3--------------|------0------3---3--|-----------------------|
B|--3--------------|------1------3---3--|------3---3--3--3---3--|
G|--0--------------|------2------0---0--|------2---2--2--2---2--|
D|--0--------------|------2------0---0--|------0---0--0--0---0--|
A|--2-------0---2--|--0-----------------|------0---0--0--0---0--|
E|------3----------|---------3----------|--2--------------------|

   __ and...
e|-----0------3---3--3--|----------------------|-----0-----3--3-|
B|-----1------3---3--3--|-----3----3--3--3--3--|-----1-----3--3-|
G|-----2------0---0--0--|-----2----2--2--2--2--|-----2-----0--0-|
D|-----2------0---0--0--|-----0----0--0--0--0--|-----2-----0--0-|
A|--0-------------------|-----0----0--0--0--0--|--0-------------|
E|----------3-----------|--2-------------------|--------3-------|

   blow  them  all  away.____
e|----------------------|------3---3--3--3--|
B|-----3---3--3--3---3--|------3---3--3--3--|
G|-----2---2--2--2---2--|------0---0--0--0--|
D|-----0---0--0--0---0--|------0---0--0--0--|
A|-----0---0--0--0---0--|------2---2--2--2--|
E|--2-------------------|--3----------------|

                   f**k it up...
e|--3----------|----0----0--0--0---0--|-----0---0--0--0---0--|
B|--3----------|----0----0--0--0---0--|-----2---2--2--2---2--|
G|--0----------|----0----0--0--0---0--|-----2---2--2--2---2--|
D|--0----------|----2----2--2--2---2--|-----2---2--2--2---2--|
A|--2----------|----2----2--2--2---2--|--0-------------------|
E|-----3--2--1-|-0--------------------|----------------------|

       Then ...
e|--3----------|----0----0--0--0---0--|-----0---0--0--0---0--|
B|--3----------|----0----0--0--0---0--|-----2---2--2--2---2--|
G|--0----------|----0----0--0--0---0--|-----2---2--2--2---2--|
D|--0----------|----2----2--2--2---2--|-----2---2--2--2---2--|
A|--2----------|----2----2--2--2---2--|--0-------------------|
E|-----3--2--1-|-0--------------------|----------------------|

   Think-in' you  was  a - heav-en - sent,  ha 
e|----0----0--0--0---0--|-----0---0--0--0---0--|
B|----0----0--0--0---0--|-----2---2--2--2---2--|
G|----0----0--0--0---0--|-----2---2--2--2---2--|
D|----2----2--2--2---2--|-----2---2--2--2---2--|
A|----2----2--2--2---2--|--0-------------------|
E|-0--------------------|----------------------|

   ha ha                   your nothin' but hell
e|----0----0--0--0---0--|-----0---0--0--0---0--|------0-----3--3--|
B|----0----0--0--0---0--|-----2---2--2--2---2--|------1-----3--3--|
G|----0----0--0--0---0--|-----2---2--2--2---2--|------2-----0--0--|
D|----2----2--2--2---2--|-----2---2--2--2---2--|------2-----0--0--|
A|----2----2--2--2---2--|--0-------------------|--0---------------|
E|-0--------------------|----------------------|---------3--------|


e|----------------------|-----0-------3--3--3--|----------------------|
B|-----3---3--3--3--3---|-----1-------3--3--3--|------3---3--3--3--3--|
G|-----2---2--2--2--2---|-----2-------0--0--0--|------2---2--2--2--2--|
D|-----0---0--0--0--0---|-----2-------0--0--0--|------0---0--0--0--0--|
A|-----0---0--0--0--0---|-0--------------------|------0---0--0--0--0--|
E|--2-------------------|---------3------------|--2-------------------|

      Go straight to hell."__
e|------0------3--3--3--|----------------------|------0-------3--3--|
B|------1------3--3--3--|-----3---3--3--3--3---|------1-------3--3--|
G|------2------0--0--0--|-----2---2--2--2--2---|------2-------0--0--|
D|------2------0--0--0--|-----0---0--0--0--0---|------2-------0--0--|
A|--0-------------------|-----0---0--0--0--0---|--0-----------------|
E|----------3-----------|--2-------------------|----------3---------|

e|----------------------|------3--3--3--3--3--|--3------------------|
B|------3---3--3--3--3--|------3--3--3--3--3--|--3------------------|
G|------2---2--2--2--2--|------0--0--0--0--0--|--0------------------|
D|------0---0--0--0--0--|------0--0--0--0--0--|--0------------------|
A|------0---0--0--0--0--|------2--2--2--2--2--|--2------------------|
E|--2-------------------|--3------------------|--3------------------|





 /  slide up
 \  slide down



Go straight to hell,
All you government personnel,
Sittin' awf'ly well
In your big, white house up on the hill.

You say now, give me a home
Where the buffalo roam,
Where the deer and antelope play.
You can bet your ass we'll blow them all away.

f**k it up until it's bent,
Then a-wonder where it went.
Thinkin' you was a-heaven sent, ha ha ha,
You're nothin' but hell!

Go straight to hell



Learn it. Rate it. Play it.

============================================================================
            

comments powered by Disqus
↑ Back to top | Tesla Tabs for Government Personnel. Lyrics for acoustic guitar and electric guitar. Tablatures and chords are parodies/interpretations of the original songs. You may use it for private study, scholarship, research or language learning purposes only