» » »

Got No Glory Tabs (ver.1)

Artists:  A B C D E F G H I J K L M N O P Q R S T U V W X Y Z # 

Got No Glory Tabs (ver.1)

Tesla
Rating:
0/5 (0 votes)

Hard to play? Try these video lessons and learn fast.
                -------------------------------------------------------------------------------
-------------------------------------------------------------------------------

Tuning: Drop Db

Intro part 1
eb|---------------------------------------------------------------------------|
Bb|---------------------------------------------------------------------------|
Gb|---------------------------------------------------------------------------|
Db|-----------xx---xx---xx-----4x---------------------------------------------|
Ab|--0-3-0-35-00-6-00-5-00-35-------------------------------------------------|
Db|--0-3-0-35-00-6-00-5-00-35-------------------------------------------------|
     Whaaaaaaaa. . . 		

Gtr.2 – during 3rd and 4th time trough intro (with wha wha)
eb|---------------------------------------------------------------------------|
Bb|---------------------------------------------------------------------------|
Gb|---13~~~~~10~~~~~~~~~~~~-----------------------------------------------------|
Db|---------------------------------------------------------------------------|
Ab|---------------------------------------------------------------------------|
Db|---------------------------------------------------------------------------|

Verse 1
Both guitars (same as intro)
eb|---------------------------------------------------------------------------|
Bb|---------------------------------------------------------------------------|
Gb|---------------------------------------------------------------------------|
Db|------------------------------------xx---xx---xx---------------------------|
Ab|---------------------------0-3-0-35-00-6-00-5-00-35------------------------|
Db|---------------------------0-3-0-35-00-6-00-5-00-35------------------------|
   What I feel is what I say  			    I’m keeping it real so 
eb|---------------------------------------------------------------------------|
Bb|---------------------------------------------------------------------------|
Gb|---------------------------------------------------------------------------|
Db|-------------------------------xx---xx---xx-------------xx---xx---xx-------|
Ab|----------------------0-3-0-35-00-6-00-5-00-35-0-3-0-35-00-6-00-5-00-35----|
Db|----------------------0-3-0-35-00-6-00-5-00-35-0-3-0-35-00-6-00-5-00-35----|
   Nevermind the taste  			 cause I know theres nothing...
eb|---------------------------------------------------------------------------|
Bb|---------------------------------------------------------------------------|
Gb|---------------------------------------------------------------------------|
Db|----------xx---xx---xx-------------xx---xx---xx----------------------------|
Ab|-0-3-0-35-00-6-00-5-00-35-0-3-0-35-00-6-00-5-00-35-------------------------|
Db|-0-3-0-35-00-6-00-5-00-35-0-3-0-35-00-6-00-5-00-35-------------------------|
   Bridge
eb|---------------------------------------------------------------------------|
Bb|---------------------------------------------------------------------------|
Gb|---------------------------------------------------------------------------|
Db|---------------------------------------------------------------------------|
Ab|-5555-4444-3333-2222-5555-4444-3333----------------------------------------|
Db|-5555-4444-3333-2222-5555-4444-3333-333333b--------------------------------|
    I never need an alibi...           ++++++
Chorus
eb|---------------------------------------------------------------------------|
Bb|---------------------------------------------------------------------------|
Gb|---------------------------------------------------------------------------|
Db|---------------------------------------------------------------------------|
Ab|-0-xxx-3-33-3333/8xxx8\5-5-353-0-xxx-3-33-3333/8xxx8\5---------------------|
Db|-0-xxx-3-33-3333/8xxx8\5-5-353-0-xxx-3-33-3333/8xxx8\5---------------------|
    I’ve got no glory...				       come and get it
Verse 2
eb|---------------------------------------------------------------------------|
Bb|---------------------------------------------------------------------------|
Gb|---------------------------------------------------------------------------|
Db|----------xx---xx---xx-------------xx---xx---xx----------------------------|
Ab|-0-3-0-35-00-6-00-5-00-35-0-3-0-35-00-6-00-5-00-35-------------------------|
Db|-0-3-0-35-00-6-00-5-00-35-0-3-0-35-00-6-00-5-00-35-------------------------|
						   To falseify don’t make no
eb|---------------------------------------------------------------------------|
Bb|---------------------------------------------------------------------------|
Gb|---------------------------------------------------------------------------|
Db|----------------xx---xx---xx-----------------------------------------------|
Ab|-------0-3-0-35-00-6-00-5-00-35--------------------------------------------|
Db|-------0-3-0-35-00-6-00-5-00-35--------------------------------------------|
   Sense,			I’d rather deal with the consequences 
eb|---------------------------------------------------------------------------|
Bb|---------------------------------------------------------------------------|
Gb|---------------------------------------------------------------------------|
Db|----------xx---xx---xx-------------xx---xx---xx-------------xx---xx---xx---|
Ab|-0-3-0-35-00-6-00-5-00-35-0-3-0-35-00-6-00-5-00-35-0-3-0-35-00-6-00-5-00-35|
Db|-0-3-0-35-00-6-00-5-00-35-0-3-0-35-00-6-00-5-00-35-0-3-0-35-00-6-00-5-00-35|
		      Cause I know there’s nothing deeper than truth...   
eb|---------------------------------------------------------------------------|
Bb|---------------------------------------------------------------------------|
Gb|---------------------------------------------------------------------------|
Db|----------xx---xx---xx-----------------------------------------------------|
Ab|-0-3-0-35-00-6-00-5-00-35--------------------------------------------------|
Db|-0-3-0-35-00-6-00-5-00-35--------------------------------------------------|

Bridge
eb|---------------------------------------------------------------------------|
Bb|---------------------------------------------------------------------------|
Gb|---------------------------------------------------------------------------|
Db|---------------------------------------------------------------------------|
Ab|-5555-4444-3333-2222-5555-4444-3333----------------------------------------|
Db|-5555-4444-3333-2222-5555-4444-3333-333333b--------------------------------|
    I never need an alibi...
Chorus
eb|---------------------------------------------------------------------------|
Bb|---------------------------------------------------------------------------|
Gb|---------------------------------------------------------------------------|
Db|---------------------------------------------------------------------------|
Ab|-0-xxx-3-33-3333/8xxx8\5-5-353-0-xxx-3-33-3333/8xxx8\5-5-353---------------|
Db|-0-xxx-3-33-3333/8xxx8\5-5-353-0-xxx-3-33-3333/8xxx8\5-5-353---------------|
Ive got no glory...
eb|---------------------------------------------------------------------------|
Bb|---------------------------------------------------------------------------|
Gb|---------------------------------------------------------------------------|
Db|---------------------------------------------------------------------------|
Ab|-0-xxx-3-33-3333/8xxx8\5-5-353-0-xxx-3-33-3333/8xxx8\5---------------------|
Db|-0-xxx-3-33-3333/8xxx8\5-5-353-0-xxx-3-33-3333/8xxx8\5---------------------|
							Come and get it

The solo is coming but its taking me longer so heres the rhythm backing for the solo
Gtr. 1
eb|---------------------------------------------------------------------------|
Bb|---------------------------------------------------------------------------|
Gb|---------------------------------------------------------------------------|
Db|---------------------------------------------------------------------------|
Ab|-------------------------0-3-0-35-0-----------------0-3-0-35---------------|
Db|-------------------------0-3-0-53-0-6b6b6b6b6b-6~-5-0-3-0-35---------------|

Gtr. 1
eb|---------------------------------------------------------------------------|
Bb|---------------------------------------------------------------------------|
Gb|---------------------------------------------------------------------------|
Db|---------------------------------------------------------------------------|
Ab|-0-3-0-53-0---------------5-0-3-0-35---------------------------------------|
Db|-0-3-0-53-0-6b6b6b6b6b-6~-5-0-3-0-35---------------------------------------|

Gtr. 1
eb|---------------------------------------------------------------------------|
Bb|---------------------------------------------------------------------------|
Gb|---------------------------------------------------------------------------|
Db|---------------------------------------------------------------------------|
Ab|-0-3-0-53-0---------------5-0-3-0-35---------------------------------------|
Db|-0-3-0-53-0-6b6b6b6b6b-6~-5-0-3-0-35---------------------------------------|

Gtr. 1
eb|---------------------------------------------------------------------------|
Bb|---------------------------------------------------------------------------|
Gb|---------------------------------------------------------------------------|
Db|---------------------------------------------------------------------------|
Ab|-0-3-0-53-0---------------0-3-0-53-0---------------0-3-0-53-0--------------|
Db|-0-3-0-53-0-6b6b6b6b6b-6~-0-3-0-53-0-6b6b6b6b6b-6~-0-3-0-53-0-6b6b6b6b6b-6~|

Gtr.1
eb|---------------------------------------------------------------------------|
Bb|---------------------------------------------------------------------------|
Gb|---------------------------------------------------------------------------|
Db|---------------------------------------------------------------------------|
Ab|-0-3-0-35-0----------------5555-4444-3333-2222-5555-4444-3333--------------|
Db|-0-3-0-53-0-6b6b6b6b6b-6~--5555-4444-3333-2222-5555-4444-3333--------------|

Chorus
Both guitars
eb|---------------------------------------------------------------------------|
Bb|---------------------------------------------------------------------------|
Gb|---------------------------------------------------------------------------|
Db|---------------------------------------------------------------------------|
Ab|-0-xxx-3-33-3333/8xxx8\5-5-353-0-xxx-3-33-3333/8xxx8\5-5-353---------------|
Db|-0-xxx-3-33-3333/8xxx8\5-5-353-0-xxx-3-33-3333/8xxx8\5-5-353---------------|

eb|---------------------------------------------------------------------------|
Bb|---------------------------------------------------------------------------|
Gb|---------------------------------------------------------------------------|
Db|---------------------------------------------------------------------------|
Ab|-0-xxx-3-33-3333/8xxx8\5-5-353-0-xxx-3-33-3333/8xxx8\5-5-353---------------|
Db|-0-xxx-3-33-3333/8xxx8\5-5-353-0-xxx-3-33-3333/8xxx8\5-5-353---------------|

eb|---------------------------------------------------------------------------|
Bb|---------------------------------------------------------------------------|
Gb|---------------------------------------------------------------------------|
Db|---------------------------------------------------------------------------|
Ab|-0-xxx-3-33-3333/8xxx8\5-5-353-0-xxx-3-33-3333/8xxx8\5-5-353---------------|
Db|-0-xxx-3-33-3333/8xxx8\5-5-353-0-xxx-3-33-3333/8xxx8\5-5-353---------------|

eb|---------------------------------------------------------------------------|
Bb|---------------------------------------------------------------------------|
Gb|---------------------------------------------------------------------------|
Db|---------------------------------------------------------------------------|
Ab|-0-xxx-3-33-3333/8xxx8\5-5-353-0-xxx-3-33-3333/8xxx8\5-5-353---------------|
Db|-0-xxx-3-33-3333/8xxx8\5-5-353-0-xxx-3-33-3333/8xxx8\5-5-353---------------|

Outro (clean)
eb|--------------------------------------------------------------------------0|
Bb|--------------------------------------------------------------------------0|
Gb|--------------------------------------------------------------------------2|
Db|--7-----5-----3-----2-----7-----5-----3-----2-----7-----5-----3-----2-----2|
Ab|----0-----0-----0-----0-----0-----0-----0-----0-----0-----0-----0-----0---0|
Db|0-----0-----0-----0-----0-----0-----0-----0-----0-----0-----0-----0-----0--|
Let notes ring

| /  slide up
| \  slide down
| h  hammer-on
| p  pull-off
| ~  vibrato
| +  artificial harmonic
| x  Mute note
| b  Bend
===============================================================================
            
Hard to play? Try these video lessons and learn fast. | Correct




comments powered by Disqus
↑ Back to top | Tablatures and chords are parodies/interpretations of the original songs. You may use it for private study, scholarship, research or language learning purposes only