>
 >
Fallin' Apart

Fallin' Apart Guitar Tabs

Tesla - Fallin' Apart chords, tabs, tablatures, lyrics

Guitar lessons | Add/correct | Request | Top 50 tabs Artists:  A B C D E F G H I J K L M N O P Q R S T U V W X Y Z 0-9

Fallin' Apart Guitar Tabs – Tesla

CD, Sheet music, Poster

Do you like Fallin' Apart? Share with your friends now
Tabs


----------------------------------------------------
Tune: half step down

intro
 Gtr. 1
|------------------------------------------------------------|
|-7---7---7---7---5---5----5---5---7---7---7---7---5---------|
|-8---8---6---6---6---6----4---4---8---8---6---6---6---------|
|---9---9---8---8---7---7----6---6---9---9---8---8-7---------|
|------------------------------------------------------------|
|------------------------------------------------------------|

 Gtr. 2
|--------------------------------------------------------------|
|--------------------------------------------------------------|
|-8/11------11-13-11----8hb---4-----8/11-------11-13-11---8hb--|
|--------13---------------------------------13-----------------|
|--------------------------------------------------------------|
|--------------------------------------------------------------|

Verse
 Gtr. 1 (play x2)
|----------------------------------------------------------------|
|-7---7---7---7---5---5----5---5---7---7---7---7---5---------5---|
|-8---8---6---6---6---6----4---4---8---8---6---6---6-------6-----|
|---9---9---8---8---7---7----6---6---9---9---8---8-7-------------|
|----------------------------------------------------------------|
|----------------------------------------------------------------|

 Gtr. 2 (play x2)
|-------7--------|
|-----5----------|
|---6------------|
|-7--------------|
|----------------|
|----------------|

Pre Chorous
 Gtr. 1
|---------------------------------------------------------------|
|-------5-----------------------------5-------------------------|
|-------6-------------3---4-----------6-------------------------|
|-----6-----6-------6---------------6-----6-----4-4-4-4-4-4-4-4-|
|---4-------------6---------------4-------------4-4-4-4-4-4-4-4-|
|-4-------------4---------------4---------------2-2-2-2-2-2-2-2-|

 Gtr. 2 (first time)
|--------------------------------------------------------------|
|-----9--9----------------------------9--9---------------------|
|-8h9----9------------3-----------8h9----9-----3---3---4---6---|
|-------11----------6-------6------------11--------------------|
|-----------------6---------6----------------------------------|
|---------------4---------4------------------------------------|

Gtr. 2 (second time)
|------------------------------------------------------4---6---|
|-----9--9----------------------------9--9-----7---7-----------|
|-8h9----9------------3-----------8h9----9---------------------|
|-------11----------6-------6------------11--------------------|
|-----------------6---------6----------------------------------|
|---------------4---------4------------------------------------|


Chorous
 Gtr. 1 (2nd chorous play x2 & 3rd chorous play x3)
|------------------------------------------------------------------|
|------------------------------------------------------------------|
|---------------------------------6-6-6-6-6-6-6-6-9---9-8---8-6-6--|
|-9-9-9-9-9-9-9-9-8-8-8-8-8-8-8-8-6-6-6-6-6-6-6-6------------------|
|-9-9-9-9-9-9-9-9-9-9-9-9-9-9-9-9-4-4-4-4-4-4-4-4-7---7-6---6-4-4--|
|-7-7-7-7-7-7-7-7-6-6-6-6-6-6-6-6----------------------------------|
|Gtr. 2
|------------------------------------------------------------------|
|--------------------------------------------------------------x-x-|
|---------------------------------6-6-6-6-6-6-6-6-9---9-8---8-xxxx-|
|-9-9-9-9-9-9-9-9-8-8-8-8-8-8-8-8-6-6-6-6-6-6-6-6-9---9-9---9-xxxx-|
|-9-9-9-9-9-9-9-9-9-9-9-9-9-9-9-9-4-4-4-4-4-4-4-4-7---7-6---6-x-x--|
|-7-7-7-7-7-7-7-7-6-6-6-6-6-6-6-6----------------------------------|

 Gtr. 1 (only play on 1st & 3rd chorous)
|-------------------------------------------------------------------|
|-------------------------------------------------------------------|
|---------------------------------6-6-6-6-6-6-6-6-------------------|
|-9-9-9-9-9-9-9-9-8-8-8-8-8-8-8-8-6-6-6-6-6-6-6-6-2-----------------|
|-9-9-9-9-9-9-9-9-9-9-9-9-9-9-9-9-4-4-4-4-4-4-4-4-2-----------------|
|-7-7-7-7-7-7-7-7-6-6-6-6-6-6-6-6-----------------0-----------------|
|Gtr. 2
|-------------------------------------------------7----------------|
|-------------------------------------------------8----------------|
|---------------------------------6-6-6-6-6-6-6-6-9----------------|
|-9-9-9-9-9-9-9-9-8-8-8-8-8-8-8-8-6-6-6-6-6-6-6-6-9----------------|
|-9-9-9-9-9-9-9-9-9-9-9-9-9-9-9-9-4-4-4-4-4-4-4-4-7----------------|
|-7-7-7-7-7-7-7-7-6-6-6-6-6-6-6-6----------------------------------|

Bridge
 Gtr. 1
|----------------------------------------------------------------|
|----------------------------------------------------------------|
|----------------------------------------------------------------|
|-4---------------------------------------------4-4-4-4-4-4-4-4--|
|-4---------------------------------------------4-4-4-4-4-4-4-4--|
|-2---------------------------------------------2-2-2-2-2-2-2-2--|

 Gtr. 2
|----------------------------------------------------------------|
|-------------------------x-x---------------------------3-3-4-6--|
|-------------------------x-x-4hb-----------------------4-4-4-4--|
|-4-----6-----4-------6---x-x-------4-----6-----7-7-7-7----------|
|-4-----6-----4---------------------------6-----7-7-7-7----------|
|-2-----4-----2-------4-------------2-----4-----5-5-5-5----------|


Solo
 Gtr. 1 (play x2)
|-----------------------------------------------------------------|
|-----------------------------------------------------------------|
|-4-4-4-4-4-4-4-4-----------------2-2-2-2-2-2-2-2-----------------|
|-4-4-4-4-4-4-4-4-4-4-4-4-4-4-4-4-2-2-2-2-2-2-2-2-2-2-2-2-2-2-2-2-|
|-2-2-2-2-2-2-2-2-4-4-4-4-4-4-4-4-0-0-0-0-0-0-0-0-2-2-2-2-2-2-2-2-|
|-----------------2-2-2-2-2-2-2-2-----------------0-0-0-0-0-0-0-0-|

 Gtr. 2 (play x2)
|-0-------------------------------0-------------------------------|
|-0---------------0---------------2---------------0---------------|
|-4---------------3---------------2---------------1---------------|
|-4---------------4---------------2---------------2---------------|
|-2---------------4---------------0---------------2---------------|
|-----------------2-------------------------------0---------------|

 Gtr. 3
|--------------------------------------------------------------|
|--------------------------------------------------------------|
|-8-8-8-8hbr-4--/6---8-8hbr-4--/6----8-8hbr-6--\4--\1----------|
|--------------------------------------------------------------|
|--------------------------------------------------------------|
|--------------------------------------------------------------|

 Gtr. 3
|--------------------------------------------------------------|
|--------------------------------------------------------------|
|-8-8-8-8hbr-4--/6---8-8hbr-4--/6----8-8hbr-6--\4---4--/13-----|
|--------------------------------------------------------------|
|--------------------------------------------------------------|
|--------------------------------------------------------------|
|Gtr. 4
|----------------------------------------------------------------|
|-16-16-16-16hbr-12-/14--16-16hbr-12-/14--16-16hbr-14-\12--9-/12-|
|----------------------------------------------------------------|
|----------------------------------------------------------------|
|----------------------------------------------------------------|
|----------------------------------------------------------------|


Before 3rd chorous
 Gtr. 1
|------------------------------------------------------------------|
|---------------------------------5-----5-----5--------------------|
|-8-----8-----8---6-----6-----6---6-----6-----6---9---9-8---8-6-6--|
|-9-----9-----9---8-----8-----8---6-----6-----6--------------------|
|-9-----9-----9---9-----9-----9---4-----4-----4---7---7-6---6-4-4--|
|-7-----7-----7---6-----6-----6------------------------------------|
|Gtr. 2
|------------------------------------------------------------------|
|--------------------------------------------------------------x-x-|
|-8-----------------------------------------------9---9-8---8-xxxx-|
|-9-----------------------------------------------9---9-9---9-xxxx-|
|-9-----------------------------------------------7---7-6---6-x-x--|
|-7----------------------------------------------------------------|


outro solo
 Gtr. 3
|----------------------------------------------------------------|
|-16-16-16-16hbr-12-/14-----------16-16hbr--14-\12\8\4-----------|
|----------------------------------------------------------------|
|----------------------------------------------------------------|
|----------------------------------------------------------------|
|----------------------------------------------------------------|





Comments


Popular Tesla tabs & chords
Love Song Bass Tabs
Signs 1 Chords
Forever More 1 Tabs
Forever More 2 Tabs
Getting Better Tabs
Love SongIntro 3 Tabs
One Day At A Time Tabs
Rubberband Tabs
Thank You Tabs
What You Give 4 Tabs


Song lyrics



↑ Back to top | Tablatures and chords are parodies/interpretations of the original songs. You may use it for private study, scholarship, research or language learning purposes only
© 2014 AZChords.com Contact us | Privacy policy | DMCA | Add/correct tabs | Request tabs | Top 50 tabs