>
 >
School Of Rock

School Of Rock Guitar Tabs

Tenacious D - School Of Rock chords, tabs, tablatures, lyrics

Guitar lessons | Add/correct | Request | Top 50 tabs Artists:  A B C D E F G H I J K L M N O P Q R S T U V W X Y Z 0-9

School Of Rock Guitar Tabs – Tenacious D

CD, Sheet music, Poster

Do you like School Of Rock? Share with your friends now
Tabs
This tab is NOT mine, I copied it off of guitaretab.com just so 
people using this site could use the tab.  So don't leave comments
flaming me for copying it.

Guitar 1 Clean Guitar Play over and over
Intro x 4
                                                         
E||--2--2--2--3--2--5--3--2--|
B||--3--3--3--3--3--3--3--3--|
G||--2--2--2--2--2--2--2--2--|
D||--------------------------|
A||--------------------------|
E||--------------------------|

Guitar 2 Overdriven Guitar

After Intro x 4

E||-------------------|------------------|
B||-------------------|------------------|
G||--7----------------|------------------|
D||--7----------------|------------------|
A||--5----------------|------------------|
E||-------------------|------------------|


                                                                                
-------------------|------------------|---------------------|------------------|
-------------------|------------------|---------------------|------------------|
--7----------------|------------------|----7------7------7--|------------------|
--7----------------|------------------|----7------7------7--|------------------|
--5----------------|------------------|----5------5------5--|------------------|
-------------------|------------------|---------------------|------------------|


                                                              
---------------------|------------------|--------------------|
---------------------|------------------|--------------------|
----7------7------7--|------------------|--------------------|
----7------7------7--|------------------|--7--------------5--|
----5------5------5--|------------------|--5--------------3--|
---------------------|------------------|--------------------|


                                                                                
-------------------|-------------------|------------------|--------------------|
-------------------|-------------------|------------------|--------------------|
-------------------|-------------------|------------------|--------------------|
----------------5--|----------------5--|------------------|--7--------------5--|
----------------2--|----------------3--|------------------|--5--------------3--|
-------------------|-------------------|------------------|--------------------|

Verse 1
-------------------|-------------------|------------------|--------------------|
-------------------|-------------------|------------------|--------------------|
-------------------|-------------------|------------------|--------------------|
----------------5--|----------------5--|------------------|--7--------------5--|
----------------2--|----------------3--|------------------|--5--------------3--|
-------------------|-------------------|------------------|--------------------|


                                                                                
-------------------|-------------------|------------------|--------------------|
-------------------|-------------------|------------------|--------------------|
-------------------|-------------------|------------------|--------------------|
----------------5--|----------------5--|------------------|--7--------------5--|
----------------2--|----------------3--|------------------|--5--------------3--|
-------------------|-------------------|------------------|--------------------|


                                                                                
-------------------|-------------------|------------------|--------------------|
-------------------|-------------------|------------------|--------------------|
-------------------|-------------------|------------------|--------------------|
----------------5--|----------------5--|------------------|--7--------------5--|
----------------2--|----------------3--|------------------|--5--------------3--|
-------------------|-------------------|------------------|--------------------|


                                                                                
-------------------|-------------------|------------------|--------------------|
-------------------|-------------------|------------------|--------------------|
-------------------|-------------------|------------------|--------------------|
----------------5--|----------------5--|------------------|--7--------------5--|
----------------2--|----------------3--|------------------|--5--------------3--|
-------------------|-------------------|------------------|--------------------|


PM-------------------------------------------                                             
-------------------|------------------------|--------------------------|
-------------------|------------------------|--------------------------|
-------------------|------------------------|--------------------------|
-------------------|------------------------|--------------------------|
----------------5--|------5--5--5--5--5--5--|--5--5--5--5--5--5--5--5--|
----------------3--|------3--3--3--3--3--3--|--3--3--3--3--3--3--3--3--|


----------------------------------------PM          Chorus
                                                                              
--------------------------|-----------------------|------------------------|
--------------------------|-----------------------|------------------------|
--------------------------|-----------------------|------------------------|
--------------------------|-----------------------|--7----7----7--7--7--9--|
--5--5--5--5--5--5--5--5--|--5--5--5--5--5--------|--5----5----5--4--5--7--|
--3--3--3--3--3--3--3--3--|--3--3--3--3--3--------|------------------------|


                                                                        
-------------------------|-----------------------|---------------------|
-------------------------|-----------------------|---------------------|
-------------------------|-----------------------|---------------------|
----9--9--9--9--9--9-----|--------------------7--|------7----7----7----|
----7--7--7--7--7--7--5--|------5----5--5--5--5--|------5----5----5----|
----------------------3--|------3----3--3--3-----|---------------------|


                                                                                
------------------------|-------------------------|-----------------------|
------------------------|-------------------------|-----------------------|
------------------------|-------------------------|-----------------------|
--7----7----7--7--7--9--|----9--9--9--9--9--9-----|-----------------------|
--5----5----5--4--5--7--|----7--7--7--7--7--7--5--|----5--7----5--7----5--|
------------------------|----------------------3--|----3--3----3--3----3--|


                                                                      
-----------------------|-----------------------|---------------------|
-----------------------|-----------------------|---------------------|
-----------------------|-----------------------|---------------------|
-----------------------|-----------------------|---------------------|
----5--7----5--7----5--|----5--7----5--7----5--|----5--7----5--------|
----3--3----3--3----3--|----3--3----3--3----3--|----3--3----3--------|


Guitar 3 solo 1
--------------------|-------------------|-------------------|------------------|
--------------------|-------------------|-------------------|------------------|
--------------------|-------------------|-------------------|------------------|
--7--------------5--|----------------5--|----------------5--|------------------|
--5--------------3--|----------------2--|----------------3--|------------------|
--------------------|-------------------|-------------------|------------------|


                                                                                
--------------------|-------------------|-------------------|------------------|
--------------------|-------------------|-------------------|------------------|
--------------------|-------------------|-------------------|------------------|
--7--------------5--|----------------5--|----------------5--|------------------|
--5--------------3--|----------------2--|----------------3--|------------------|
--------------------|-------------------|-------------------|------------------|


Verse 2
--------------------|-------------------|-------------------|------------------|
--------------------|-------------------|-------------------|------------------|
--------------------|-------------------|-------------------|------------------|
--7--------------5--|----------------5--|----------------5--|------------------|
--5--------------3--|----------------2--|----------------3--|------------------|
--------------------|-------------------|-------------------|------------------|


                                                                                
--------------------|-------------------|-------------------|------------------|
--------------------|-------------------|-------------------|------------------|
--------------------|-------------------|-------------------|------------------|
--7--------------5--|----------------5--|----------------5--|------------------|
--5--------------3--|----------------2--|----------------3--|------------------|
--------------------|-------------------|-------------------|------------------|


                                                                                
--------------------|-------------------|-------------------|------------------|
--------------------|-------------------|-------------------|------------------|
--------------------|-------------------|-------------------|------------------|
--7--------------5--|----------------5--|----------------5--|------------------|
--5--------------3--|----------------2--|----------------3--|------------------|
--------------------|-------------------|-------------------|------------------|


                                               Palm muted                  
--------------------|-------------------|------------------------|
--------------------|-------------------|------------------------|
--------------------|-------------------|------------------------|
--7--------------5--|-------------------|------------------------|
--5--------------3--|----------------5--|------5--5--5--5--5--5--|
--------------------|----------------3--|------3--3--3--3--3--3--|


                                                                          
--------------------------|--------------------------|-------------------|
--------------------------|--------------------------|-------------------|
--------------------------|--------------------------|-------------------|
--------------------------|--------------------------|-------------------|
--5--5--5--5--5--5--5--5--|--5--5--5--5--5--5--5--5--|--5----------------|
--3--3--3--3--3--3--3--3--|--3--3--3--3--3--3--3--3--|--3----------------|


Chorus                                                                              
------------------------|-------------------------|-----------------------|
------------------------|-------------------------|-----------------------|
------------------------|-------------------------|-----------------------|
--7----7----7--7--7--9--|----9--9--9--9--9--9-----|--------------------7--|
--5----5----5--4--5--7--|----7--7--7--7--7--7--5--|------5----5--5--5--5--|
------------------------|----------------------3--|------3----3--3--3-----|


                                                                         
---------------------|------------------------|-------------------------|
---------------------|------------------------|-------------------------|
---------------------|------------------------|-------------------------|
------7----7----7----|--7----7----7--7--7--9--|----9--9--9--9--9--9-----|
------5----5----5----|--5----5----5--4--5--7--|----7--7--7--7--7--7--5--|
---------------------|------------------------|----------------------3--|

                        
                        Chorus                                                 
-----------------------|------------------------|-----------------------|
-----------------------|------------------------|-----------------------|
-----------------------|------------------------|-----------------------|
--------------------7--|------7--7--7--7--7--7--|------7----7--7--7--9--|
------5----5--5--5--5--|------5--5--5--5--4--5--|------5----5--4--5--7--|
------3----3--3--3-----|------------------------|-----------------------|


                                                                        
-------------------------|-----------------------|---------------------|
-------------------------|-----------------------|---------------------|
-------------------------|-----------------------|---------------------|
----9--9--9--9--9--9-----|--------------------7--|------7----7----7----|
----7--7--7--7--7--7--5--|------5----5--5--5--5--|------5----5----5----|
----------------------3--|------3----3--3--3-----|---------------------|


                                                                           
------------------------|-------------------------|-----------------------|
------------------------|-------------------------|-----------------------|
------------------------|-------------------------|-----------------------|
--7----7----7--7--7--9--|----9--9--9--9--9--9-----|-----------------------|
--5----5----5--4--5--7--|----7--7--7--7--7--7--5--|----5--7----5--7----5--|
------------------------|----------------------3--|----3--3----3--3----3--|


                                                                                
-----------------------|-----------------------|---------------------|----|----|
-----------------------|-----------------------|---------------------|----|----|
-----------------------|-----------------------|---------------------|----|----|
-----------------------|-----------------------|---------------------|----|----|
----5--7----5--7----5--|----5--7----5--7----5--|----5--7----5--------|----|----|
----3--3----3--3----3--|----3--3----3--3----3--|----3--3----3--------|----|----|


                                                                         
----|----|---------------------|------------------|---------------------|
----|----|---------------------|------------------|---------------------|
----|----|----7------7------7--|------------------|----7------7------7--|
----|----|----7------7------7--|------------------|----7------7------7--|
----|----|----5------5------5--|------------------|----5------5------5--|
----|----|---------------------|------------------|---------------------|


                                                            
------------------|---------------------|------------------|
------------------|---------------------|------------------|
------------------|----7------7------7--|------------------|
------------------|----7------7------7--|------------------|
------------------|----5------5------5--|------------------|
------------------|---------------------|------------------|


                                                               
---------------------|-------------------|--------------------|
---------------------|-------------------|--------------------|
----7------7------7--|-------------------|--------------------|
----7------7------7--|----------------7--|--7--------------5--|
----5------5------5--|----------------5--|--5--------------3--|
---------------------|-------------------|--------------------|


                                                                                
-------------------|-------------------|------------------|--------------------|
-------------------|-------------------|------------------|--------------------|
-------------------|-------------------|------------------|--------------------|
----------------5--|----------------5--|------------------|--7--------------5--|
----------------2--|----------------3--|------------------|--5--------------3--|
-------------------|-------------------|------------------|--------------------|


Guitar 3 Solo 2
-------------------|-------------------|------------------|--------------------|
-------------------|-------------------|------------------|--------------------|
-------------------|-------------------|------------------|--------------------|
----------------5--|----------------5--|------------------|--7--------------5--|
----------------2--|----------------3--|------------------|--5--------------3--|
-------------------|-------------------|------------------|--------------------|


                                                                                
-------------------|-------------------|------------------|--------------------|
-------------------|-------------------|------------------|--------------------|
-------------------|-------------------|------------------|--------------------|
----------------5--|----------------5--|------------------|--7--------------5--|
----------------2--|----------------3--|------------------|--5--------------3--|
-------------------|-------------------|------------------|--------------------|


                                                                                
-------------------|-------------------|------------------|--------------------|
-------------------|-------------------|------------------|--------------------|
-------------------|-------------------|------------------|--------------------|
----------------5--|----------------5--|------------------|--7--------------5--|
----------------2--|----------------3--|------------------|--5--------------3--|
-------------------|-------------------|------------------|--------------------|


                                                                                
-------------------|-------------------|------------------|--------------------|
-------------------|-------------------|------------------|--------------------|
-------------------|-------------------|------------------|--------------------|
----------------5--|----------------5--|------------------|--7--------------5--|
----------------2--|----------------3--|------------------|--5--------------3--|
-------------------|-------------------|------------------|--------------------|


                                                 A.H   A.H        
-------------------|------------------|----------12b---------|
-------------------|------------------|----------------------|
-------------------|------------------|----------------------|
-------------------|------------------|----------------------|
----------------5--|------------------|----------------------|
----------------3--|------------------|----------------12----|


Outro
------------------|------------------|---------------------|------------------|
------------------|------------------|---------------------|------------------|
------------------|------------------|----7------7------7--|------------------|
------------------|------------------|----7------7------7--|------------------|
------------------|------------------|----5------5------5--|------------------|
------------------|------------------|---------------------|------------------|


                                                                                
---------------------|------------------|-------------------|------------------|
---------------------|------------------|-------------------|------------------|
----5------5------5--|------------------|-------------------|------------------|
----5------5------5--|------------------|----5--------------|------------------|
----3------3------3--|------------------|----5--------------|------------------|
---------------------|------------------|----3--------------|------------------|


                                                                              
------------------|------------------|------------------|-------------------||
------------------|------------------|------------------|-------------------||
------------------|------------------|------------------|-------------------||
------------------|------------------|------------------|--7/---------------||
------------------|------------------|------------------|--5/---------------||
------------------|------------------|------------------|-------------------||

Guitar 3 Overdriven Guitar

Solo 1

|------------------------------|
|-------12p10------------------|
|--9b---------11p9p7-9p7~---9b-|
|------------------------------|
|------------------------------|
|------------------------------|


                                                        
--------------------------|----------------------------|
--------------------------|------10r---10----10--10h12-|
----9b9b-9b-9b9b7-9--7~---|----------------------------|
--------------------------|----------------------------|
--------------------------|----------------------------|
--------------------------|----------------------------|


                                                      
--10h12p10----10--10----12b---12r-|------------------|
-----------12---------------------|------------------|
----------------------------------|------------------|
----------------------------------|------------------|
----------------------------------|------------------|
----------------------------------|------------------|


                                                                          
--10h12p10----10--10------10--10--|----------------------------10----12b-|
-----------12---------------------|--10h-12----10h12p10h12-10-----12-----|
----------------------------------|--------------------------------------|
----------------------------------|--------------------------------------|
----------------------------------|--------------------------------------|
----------------------------------|--------------------------------------|


                                                                                
----12--10--10--12r---10-12-10~-|
--------------------------------|
--------------------------------|
--------------------------------|
--------------------------------|
--------------------------------|

Solo 2

|-------------------------|
|-------------------------|
|--9b---9r---9b-9p7h9--7--|
|-------------------------|
|-------------------------|
|-------------------------|


                                                                                
-----------------------|-----------------------------|-------------------------|
-----------------------|----------12--------12--10p7-|-------------------------|
--------------------7--|--9b---9b-----9b-9b----------|--9--7--9--7-------7--9--|
------9----7--9--9-----|-----------------------------|----------------9--------|
-----------------------|-----------------------------|-------------------------|
-----------------------|-----------------------------|-------------------------|


                                                                               
----------------------------|-----------------------|-------------------------|
----------------------------|-----------------------|-------------------------|
--7--9p7----7--9p7----7--9--|--9~-------9--7--9--7--|----------------7--9--7--|
---------9---------9--------|-----------------------|------9p7h9--9-----------|
----------------------------|-----------------------|-------------------------|
----------------------------|-----------------------|-------------------------|


                                                           
------------------------|--------10--8----------8---------|
------------------------|--------------10-7--8----10-7----|
---------------------7--|------7-----------------------10-|
----9--7--9----7--9-----|----9----------------------------|
------------------------|---------------------------------|
------------------------|---------------------------------|


                                                                          
------------------------------------|------------------------------------|
------------------------------------|------------------------------------|
----12--10--12--10--10~-------------|----------10--12--12b-12-10-12--10--|
--------------------------12-10-----|--10--12----------------------------|
--------------------------------12--|------------------------------------|
------------------------------------|------------------------------------|


                                                                 
-----------------------------------|----------------------------|
-----------------------------------|------13p-10--13p-10----15--|
--12--10---------------10--12--12b-|----------------------------|
----------12--10-12----------------|----------------------------|
-----------------------------------|----------------------------|
-----------------------------------|----------------------------|


                                                                       
------------13--15--13--15--15b-|------------------|------------------|
----15--15----------------------|------------------|------------------|
--------------------------------|------------------|------------------|
--------------------------------|------------------|------------------|
--------------------------------|------------------|------------------|
--------------------------------|------------------|------------------|


                                                               
------------------|------|------|----10--8--------------------|
------------------|------|------|-----------10--8-------------|
------------------|------|------|------------------10--7------|
------------------|------|------|-------------------------10--|
------------------|------|------|-----------------------------|
------------------|------|------|-----------------------------|


                                                                    
--------------------|--------------------------|-------------------|
--------------------|-----------8--8b----6-8p6-|-------------------|
--7--7--------------|----7--10-----------------|----7--------------|
--------------------|--------------------------|-------------------|
--------------------|--------------------------|-------------------|
--------------------|--------------------------|-------------------|


                                                                             
------------------|------------------|-------------------|------------------|
------------------|------------------|-------------------|------------------|
------------------|------------------|--7----------------|------------------|
------------------|------------------|-------------------|------------------|
------------------|------------------|-------------------|------------------|
------------------|------------------|-------------------|------------------|


                     
-------------------||
-------------------||
-------------------||
--7/---------------||
--5/---------------||
-------------------||





Comments


Popular Tenacious D tabs & chords
Dio Bass Tabs
Kong Chords
Marajuanaville 1 Chords
Special Things Chords
Friendship Drum Tabs
Baby 1 Tabs
Baby 2 Tabs
City Hall 2 Tabs
Cream Dream Tabs
Kielbasa 4 Tabs


Song lyrics



↑ Back to top | Tablatures and chords are parodies/interpretations of the original songs. You may use it for private study, scholarship, research or language learning purposes only
© 2014 AZChords.com Contact us | Privacy policy | DMCA | Add/correct tabs | Request tabs | Top 50 tabs