» » »

Tenacious D, Intro From Saturday Night Tabs (ver.1)

Artists:  A B C D E F G H I J K L M N O P Q R S T U V W X Y Z # 

Intro From Saturday Night Tabs (ver.1)

Tenacious D Tabs
Rating:
0/5 (0 votes)
Intro From Saturday Night lessons Tabs too difficult? Try these video lessons and learn fast
                (Live)
Tenacious D off Saturday Night Live.

Jack Black plays this too start off the show.
I got the video off Kazaa (Tenacious_D_on_SNL_01192002_vcd.mpg)


The intro riff is played throughout the song
(often in the background when he's not even playing guitar).

INTRO x 2

e-----2------3p2------------------------------
b-------3--------3-------1--------------------
g---------2--------2-------2-------0----------
d---0----------------0-3-----3-------0h2------
a--------------------------------3--------3---
e---------------------------------------------

VERSE x 3

e-----2------3-----------------------------
b-------3------3-------1-------------------
g---------2------2-------2-----0-----------
d---0--------------0-3-----3-----2---------
a----------------------------3-----3-------
e------------------------------------------

Feels like a dream, like some delicious fantasy
Seems to me, it cant be real, but it is
A beam of light, shining down and engulfing me on the stage


PICK................ then strum quietly here x 1
e-----2------3----------------------------
b-------3------3-----1-1-1-1--1-1-1-1-----
g---------2------2---2-2-2-2--0-0-0-0-----
d---0--------------0-3-3-3-3--2-2-2-2-----
a-----------------------------3-3-3-3-----
e-----------------------------------------

For the first time in my life, I can see


STRUM QUIETLY x 1
e---2-2-2-2-2-2-2-2-------------------------
b---3-3-3-3-3-3-3-3----1-1-1-1--1-1-1-1-----
g---2-2-2-2-2-2-2-2----2-2-2-2--0-0-0-0-----
d---0-0-0-0-0-0-0-0----3-3-3-3--2-2-2-2-----
a-------------------------------3-3-3-3-----
e-------------------------------------------

The lucky one is not me, but you, cause you get to see me


STRUM HARDER x 3
e---2-2-2-2-2-2-2-2-------------------------
b---3-3-3-3-3-3-3-3----1-1-1-1--1-1-1-1-----
g---2-2-2-2-2-2-2-2----2-2-2-2--0-0-0-0-----
d---0-0-0-0-0-0-0-0----3-3-3-3--2-2-2-2-----
a-------------------------------3-3-3-3-----
e-------------------------------------------

The most talented man that the world has ever seen, its me
Like a cross between a lightning bolt and James Dean.
I only wish that I was you looking at me

INTRO x 2
e-----2------3p2------------------------------
b-------3--------3-------1--------------------
g---------2--------2-------2-------0----------
d---0----------------0-3-----3-------0h2------
a--------------------------------3--------3---
e---------------------------------------------

I mean wow, this is where Eddie Murphy worked
This is where John Belushi and Gilder Adner stood right up here

Pick............       STRUM HARDER HERE
e-----2------3p2---------------------
b-------3--------3-----1-1--1-1------
g---------2--------2---2-2--0-0------
d---0----------------0-3-3--2-2------
a---------------------------3-3------
e------------------------------------
                           
And now I'm here.... and I'm blowing them off the stage with my intensity


STRUM HARDER x 8
e---2-2-2-2-2-2-2-2-------------------
b---3-3-3-3-3-3-3-3----1-1---1-1------
g---2-2-2-2-2-2-2-2----2-2---0-0------
d---0-0-0-0-0-0-0-0----3-3---2-2------
a----------------------------3-3------
e-------------------------------------

Erasing there memory from the annals of history
changing the way that historians think about comedy
Come on cage twin flute solo come on
(Duel flute solo over the top)

STRUM... Pick the rest obviously x 1
e---2-2--3p2---------------------------
b---3-3------3-------1-----------------
g---2-2--------2-------2-----0---------
d---0-0----------0-3-----3-----0h2-----
a--------------------------3--------3--
e--------------------------------------

We've got a really great show tonight, 
The Strokes are here, so stick around we'll be right back

STRUM HARD till song cuts out
e---2-2-2-2-2-2-2-2-------------------
b---3-3-3-3-3-3-3-3----1-1---1-1------
g---2-2-2-2-2-2-2-2----2-2---0-0------
d---0-0-0-0-0-0-0-0----3-3---2-2------
a----------------------------3-3------
e-------------------------------------
(There is also a solo over the top here, but the video cuts out)
            

comments powered by Disqus
↑ Back to top | Tenacious D Tabs for Intro From Saturday Night. Lyrics for acoustic guitar and electric guitar. Tablatures and chords are parodies/interpretations of the original songs. You may use it for private study, scholarship, research or language learning purposes only