» » »

Tenacious D, Her Gently Tabs (ver.1)

Artists:  A B C D E F G H I J K L M N O P Q R S T U V W X Y Z # 

Her Gently Tabs (ver.1)

Tenacious D Tabs
 Rating:
4/5 (4 votes)
Her Gently lessons Tabs too difficult? Try these video lessons and learn fast
1
                INTRO:
  D               F#m                    Em              A
e------------------------------------------------------------------|
B---7-----7-----7---10-------10-------10---8-----8-----9---------5-|
G-----7-----7----------11-------11-----------9-----9-----------6---|
D-------7-----7-----------11-------11----------9-----9-------7-----|
A-5---------------9----------------------7-----------------7-------|
E--------------------------------------------------------5---------|

VERSE
  D               F#m                    Em              A
e--------------------------------------------------------------------------|
B---7-----7-----7---10-------10-------10---8-----8-----9---------5---------|
G-----7-----7----------11-------11-----------9-----9-----------6---6-6h7-6-|
D-------7-----7-----------11-------11----------9-----9-------7-------------|
A-5---------------9----------------------7-----------------7---------------|
E--------------------------------------------------------5-----------------|


1ST CHORUS: ("sometimes..")
 Bm G Bm G D A

VERSE

2ND CHORUS: ("and then you say..")
 Bm G D A  x2

VERSE

3RD CHORUS: ("and then i'm gonna..")
 Bm G D A
 Bm G
 D E A C G D
 ^--(begin fast part here on D chord)

GRAND FINALE:=20
 D Bb C D
 ^--(do a quick pulloff from the 3rd to the 2nd fret on the first string)
            
Submit corrections

comments powered by Disqus
↑ Back to top | Tenacious D Tabs for Her Gently. Lyrics for acoustic guitar and electric guitar. 1 Tablatures and chords are parodies/interpretations of the original songs. You may use it for private study, scholarship, research or language learning purposes only