>
 >
Say Hello To Heaven

Say Hello To Heaven Guitar Tabs

Temple Of The Dog - Say Hello To Heaven chords, tabs, tablatures, lyrics

Guitar lessons | Add/correct | Request | Top 50 tabs Artists:  A B C D E F G H I J K L M N O P Q R S T U V W X Y Z 0-9

Say Hello To Heaven Guitar Tabs – Temple Of The Dog

CD, Sheet music, Poster

Do you like Say Hello To Heaven? Share with your friends now
Bass TabsChordsTabsTabs v2Ukulele
Temple Of The Dog - Say Hello To Heaven

Standard Tuning

Intro:  Guitar 1
|-------3--------3--------3--------3-----------0----------------0-------|
|-----3--------3--------3--------3-----------3---3------------3----3----|
|------------------------------------------0-------0-------0---------0--|
|--3--------3--------2--------2-----------------------------------------|
|----------------------------------------1--------------0---------------|
|-----------------------------------------------------------------------|

|-------3--------3----------0-------------0-------0------------0-----|
|-----3--------3----------3---3------------------------------3---3---|
|-----------------------0-------0-------0-------0----------0-------0-|
|--------------------------------------------------------------------|
|--3-------3---------2-----------------------------------------------|
|------------------------------------1--------1---------0------------|

Guitar 1:    
|--1-1----4-4----3-------1-1----4-4----3-------1-1----4-4--|
|--1-1----4-4----3-------1-1----4-4----3-------1-1----4-4--|
|--2-2----5-5----4-------2-2----5-5----4-------2-2----5-5--|
|--3-3----6-6----5-------3-3----6-6----5-------3-3----6-6--|
|--3-3----6-6----5-------3-3----6-6----5-------3-3----6-6--|
|--1-1----4-4----3-------1-1----4-4----3-------1-1----4-4--|
 
Guitar 2:
|--1-1----4--------3-------1-1----4-------3----3--------1-1-----4-4--|
|--1-1------4------3-------1-1------4-----3------3------1-1-----4-4--|
|--2-2--------5----4-------2-2--------5---4--------4----2-2-----5-5--|
|--3-3-------------5-------3-3------------5-------------3-3-----6-6--|
|--3-3-------------5-------3-3------------5-------------3-3-----6-6--|
|--1-1-------------3-------1-1------------3-------------1-1-----4-4--|

Verse 1: Guitar 1
|--------------------------------------------------------------------|
|--------------------------------------------------------------------|
|----------------2----------0----------------------------------------|
|--0-------------2----------2------------2---------------------------|
|--5-------------0----------3------------2---------------------------|
|--3-------------------------------------0---------------------------|
 Please, mother mercy, take me from this place… 

|--------------------------------------------------------------------|
|--------------------------------------------------------------------|
|---------------------2---------------0-------------2----------------|
|--0------------------2---------------2-------------3----------------|
|--5------------------0---------------3-------------3----------------|
|--3------------------------------------------------1----------------|
 …and the long winded curses, I keep hearing in my head.

Verse 1: Guitar 2
|--------0--------------0---------------3----------------------------------3----------1------------|
|------1---1----------0----0----------3---3-----------1h3p1--------------1---1--------1-----1------|
|----0-------0------0--------0------0-------0-------2---------2--------0--------0-----2-0h2---0-0--|
|-------------------------------------------------2-----------------------------------3------------|
|--3--------------------------------------------0-----------------0--3----------------3------------|
|----------------0---------------3----------------------------------------------------1------------|

|---------3----------------------------------3--------------0--------------3----------------------|
|-------3---3-----------1h3p1--------------1---1----------0---0----------3---3----------1h3p1-----|
|-----0-------0-------2--------2---------0--------0-----0-------0------0-------0------2--------2--|
|-------------------2---------------------------------------------------------------2-------------|
|-----------------0-----------------0--3------------------------------------------0---------------|
|--3-------------------------------------------------0---------------3----------------------------|

|-----------3-------1-------|
|---------1---1-----1--1----|
|-------0-------0---2----0--|
|-------------------3----0--|
|--0-3--------------3-------|
|-------------------1-------|

Pre-Chorus: Guitar 1
|------3-------3--------3-------3---------0-------------0------|
|----3-------3--------3-------3---------3---3---------3---3----|
|-------------------------------------0-------0-----0-------0--|
|--------------------------------------------------------------|
|--3-------3-------2-------2-----------------------------------|
|----------------------------------1-------------0-------------|
He came from an island, and he died from the street…

|------3---3-----------3---3--------3---3--------3--3--3--|
|-----3---3-----------3---3-----------3---3------3--3--3--| 
|-----3---3-----------3---3----------3---3------3--3--3---| 
|---------------0--0-----------0------------0----0--0--0--|
|--0---------------x--------------2--------------x--x--x--|
|--x---------------2--------------0--------------3--3--3--|
|--3------------------------------------------------------|
He hurt so bad like a soul breaking, but he never nothing to me.

Pre-Chorus: Guitar 2
|----------------------------------|
|----------------------------------|
|--0---0---------0--0-----0--0--0--|
|--5---5---------0--x--2--2--2--2--|
|--3---2---1--2--x--2--0--3--3--3--|
|----------3--0--3-----------------|
He came from an island, but he died from the street…

|-----3--------------------3------------2-----------|
|-------3-----3----------3---3--------3---3---------|
|-------------2--3-----0-------0----2-------2-------|
|--0------0---0--2----------------0--------------2--|
|--x-------------3-------------------------------3--|
|--3-----------------3------------------------------|
He hurt so bad like a soul breaking, but he never said nothing to me. 

Chorus: Guitar 1
|--------3------------2------------------3---------------2h3p2---------|
|------3---3--------3---3--------------3---3----------3----------3-----|
|----0-------0----2-------2---0------0-------0------2---------------2--|
|---------------0-------------2-------------------0--------------------|
|-----------------------------3----------------------------------------|
|--3------------------------------3------------------------------------|
Say hello to heaven………… 

Chorus: Guitar 2
|-----3-------------|
|-------3-----------|
|---------0-----0---|   Play Twice
|--0------------2---|
|--x------------3---|
|--3----------------|
Say hello to heaven…………. 

At the end of the chorus, Guitar 1 plays:
|--1-1---4-4---3----|
|--1-1---4-4---3----|
|--2-2---5-5---5----|
|--3-3---6-6---5----|
|--3-3---6-6---4----|
|--1-1---4-4---3----|

Second Verse: Guitar 1
|--3----------------------------------------1-----------|
|--3-------------------3--------------------1---1-------|
|--4-------0-----------0--------2---0---0---2---2---0---|
|--5---2---2-----------0----2---2---0---2---3---3---0---|
|--5---0---3---2-------x----0-----------3---3-----------|
|--3-----------0-------3--------------------1-----------|

|----------------------------------1---1------------------------|
|----------------------3-----------1---1---1--1p0---------------|
|--0---2---0-----------0-------0---2---2--------------2p0-------|
|--0---2---2-----------0---2---2---3---3---------------------3--|
|--x---0---3-----------x---0---3---3----------------------------|
|--3------------0------3-----------1----------------------------|

Second Verse: Guitar 2
|---------3-------------------------------3--------------3---------------------------|
|-------3---3-----------1---------------1---1----------3---3------------1h3p1--------|
|-----0-------0-------2---2----------0--------0------0--------0-------2---------2----|
|-------------------2-----------------------------------------------2----------------|
|-----------------0------------0--3------------------------------0----------------0--|
|--3-----------------------------------------------3---------------------------------|

|--------0----------------|
|------1---1--------------|
|----0-------0-------0h2--|
|-----------------3-------|
|--3--------------3-------|
|-----------------1-------|

|---------3--------------------------------0--------------0--------------3------|
|-------3---3-----------1h3p1------------1---1----------0---0----------3---3----|
|-----0-------0-------2--------2-------0--------0-----0-------0------0-------0--|
|-------------------2-----------------------------------------------------------|
|-----------------0---------------0--3------------------------------------------|
|--3------------------------------------------------0-------------3-------------|

|------------------------0--------------------------|
|--------1-------------1---1------------------------|
|------2---2---------0--------0----2---1--1----1----|
|----2-------2---------------------3---0--0h2--2p0--|
|--0--------------3----------------3----------------|
|----------------------------------1----------------|

Pre-Chorus: Guitar 1
|------3------3------3------3--------0------------0-------|
|----3------3------3------3--------3---3--------3---3-----|
|--------------------------------0-------0----0-------0---|
|---------------------------------------------------------|
|--3------3------2------2---------------------------------|
|-----------------------------1------------0--------------|
  
|-------3---3----------3---3--------3---3-------3--3--3---|
|-----3---3----------3---3------------3---3-----3--3--3---|
|--------------0--0-----------0-------------0---0--0--0---|
|--0--------------x---------------2-------------x--x--x---|
|--x--------------2---------------0-------------3--3--3---|
|--3------------------------------------------------------|
 
Pre-Chorus: Guitar 2
|----------------------------------------|
|---1------------------------------------|
|---0--0------------0---0-------0--0--0--|
|---2--2------------0---x---2---2--2--2--|
|---3-------3---2---x---2---0---3--3--3--|
|-----------1---0---3--------------------|
 
|----3------------2h3p2----------------------3------------------3----------------------|
|------3-------3-------------------------------3------3----------------3--3--3--3------|
|--------------2-----------------3--3-----------------2---3------------2--2--2--2--3---|
|--0-------0---0-------------0---2--2------0------0---0---2---0---0----0--0--0--0--2---|
|--x-----------------------------3--3------x--------------3---x--------------------3---|
|--3---------------------------------------3------------------3------------------------|
    
Chorus: Guitar 1
|---------3--------------2-------------------------------------------|
|-------3---3----------3---3-----------------3--------0h3p0----------|
|-----0-------0------2-------2----0-------0--------2---------0---0---|
|------------------0--------------2-------------0--0-------------2---|
|---------------------------------3------------------------------3---|
|--3------------------------------------3----------------------------|

Chorus: Guitar 2
|--------3---------------2h3p2--2-------------|
|------3---3-----------3-------------3--------|
|----0-------0-------2--------------------0---|
|------------------0----------------------2---|
|-----------------------------------------3---|
|--3------------------------------------------|

Solo: Guitar 1 plays these chords 3 times
|-------------------------------|
|--3-------1--1--1-------3--1---|
|--0---2---0--0--0----0--2--0---|
|--x---2---2--2--2----0--0--2---|
|--2---0---3--3--3----x-----3---|
|---------------------3---------|

Solo: Guitar 2
|----------------------------------------------------------------------------------|
|------------------------------------------------------------15-----------15-------|
|-----------------------------------------------------12--------15b16-------15b16--|
|---------------------------------------12---12h14---------------------------------|
|-----------10--10--12p10---12/14--------------------------------------------------|
|--10h12---------------------------------------------------------------------------|

|-------------------------------------15--12---------------------------------------15--12---------|
|---15------------15-----------15-------------15--12--------------------------------------15--12--|
|--------15b16-------15b16-----------------------------14--12--12--12--12-------------------------|
|-------------------------------------------------------------------------------------------------|
|-------------------------------------------------------------------------------------------------|
|-------------------------------------------------------------------------------------------------|

|-----------------------------------------------------------------------------|
|-----------------------------------------------------------------------------|
|---14--12--12---14p12---14b16--16--16--16r14--12-------12--14--16p14p12--14--|
|--------------------------------------------------14-------------------------|
|-----------------------------------------------------------------------------|
|-----------------------------------------------------------------------------|
              Hold Bend----------------------|          

|-----------------------12h15--15--15--12h15---17b19--17b19--17b19--17b19--17b19--|
|---/15p12--15--12----------------------------------------------------------------|
|---------------------------------------------------------------------------------|
|---------------------------------------------------------------------------------|
|---------------------------------------------------------------------------------|
|---------------------------------------------------------------------------------|

|---17b19--17b19r17--15--------------------------------------------------------------------|
|-------------------------------15h17--15--------------------------------------------------|
|---------------------------------------------12h14--12------12--14b16--16--16r14--12vvvv--|
|--------------------------------------------------------14--------------------------------|
|------------------------------------------------------------------------------------------|
|------------------------------------------------------------------------------------------|
                                                           Hold Bend------------|  

|--------------------------------12h15--15--15--15--12h15--15--15--15--15--12--|
|------------------------------------------------------------------------------|
|---14b15--15--15--15r14-------------------------------------------------------|
|------------------------------------------------------------------------------|
|------------------------------------------------------------------------------|
|------------------------------------------------------------------------------|
 Hold Bend--------------|
 
|----------15----------15---------15----------15\---|
|---15h17------15h17-------15h17------15h17---------|
|---------------------------------------------------|
|---------------------------------------------------|
|---------------------------------------------------|
|---------------------------------------------------|
 
|-----------------------------------------------------------5/7--|
|---3------3----------3------3------3---------3------------------|
|---2b3----2b3r2------2b3----2b3----2b3r2-----0----------5*------|
|----------------------------------------------------------------|
|----------------------------------------------------------------|
|----------------------------------------------------------------|
*Let note ring as you slide from 5 to 7 on the high E string.

After solo, Guitar 1 plays these 2 chords, and then immediately starts Verse 3.
|--1--1-----4--4---|
|--1--1-----4--4---|
|--2--2-----5--5---|
|--3--3-----6--6---|
|--3--3-----6--6---|
|--1--1-----4--4---|

Verse 3: Guitar 1    Repeat twice.
|------------------------------------------------------|
|-------------------------------------3----------------|
|---------------------------0---------0--------0-------|
|--0---2---2------------2---2---------0----2---2-------|
|--x---0---3------------0---3----3----x----0---3---2---|
|--3------------0---3------------1----3------------0---|
   
Verse 3: Guitar 2
|---------------------------------------------------------------------------------------|
|-----------------------------------------------------------8h10p8---10p8---12p10p8h10--|
|---8h10p8---10h12p10-------------12---12-----------------------------------------------|
|---------------------------12---------12---12h14p12------------------------------------|
|---------------------------12h14----------------------14-------------------------------|
|---------------------------------------------------------------------------------------|

|--------------------13---0---------------------12---------12-------12--|
|--------------------13---0h2---12p10-----------12-------------12---12--|
|---10h12p10---10----14----------------9--------12----------------------|
|--------------10-------------------------10/---14---14-----------------|
|-----------------------------------------------------------------------|
|-----------------------------------------------------------------------|

Pre-Chorus: Guitar 1
|---------------------------------------------------------|
|-----------------------------1--1--1--1--1--1--1--1--1---|
|--4--4--4--------------------0--0--0--0--0--0--0--0--0---|
|--5--5--5----3--3---4--4-----2--2--2--2--2--2--2--2--2---|
|--5--5--5----1--1---2--2-----3--3--3--3--3--3--3--3--3---|
|--3--3--3------------------------------------------------|

Chorus: Guitar 1      Play 4 times
|--1--1----4--4----3---------1--1----4--4----3--------1--1----4--4---|
|--1--1----4--4----3---------1--1----4--4----3--------1--1----4--4---|
|--2--2----5--5----4---------2--2----5--5----4--------2--2----5--5---|
|--3--3----6--6----5---------3--3----6--6----5--------3--3----6--6---|
|--3--3----6--6----5---------3--3----6--6----5--------3--3----6--6---|
|--1--1----4--4----3---------1--1----4--4----3--------1--1----4--4---|

Chorus: Guitar 2      Play 4 times. He just strums these chords wildly, 
                      sometimes hammering on the high E string with his pinky.
|---1--1-----4--4-----3-------1--1-----4--4-----3-------1--1-----4--4---|
|---1--1-----4--4-----3-------1--1-----4--4-----3-------1--1-----4--4---|
|---2--2-----5--5-----4-------2--2-----5--5-----4-------2--2-----5--5---|
|---3--3-----6--6-----5-------3--3-----6--6-----5-------3--3-----6--6---|
|-----------------------------------------------------------------------|
|-----------------------------------------------------------------------|

Outro: Guitar 1
|-------3------3------3------3--------0------------0---------3---|
|-----3------3------3------3--------3---3--------3---3-------3---|
|---------------------------------0-------0----0-------0-----0---|
|------------------------------------------------------------0---|
|--3-------3------2------2-----------------------------------x---|
|-------------------------------1------------0---------------3---|

And that’s it….Not really a hard song if you work on it for a few minutes.  
I’m 99% positive this tab is exactly right. I got some of this from someone
else and made a few corrections, so hopefully it's all right.





Comments


Popular Temple Of The Dog tabs & chords
Hunger Strike Bass Tabs
Reach Down 1 Bass Tabs
All Night Thing Chords
Hunger Strike 1 Chords
Say Hello To Heaven Chords
Pushin Foward Back Tabs
Pushin' Forward Back 1 Tabs
Say Hello To Heaven 1 Tabs
Times On Trouble 1 Tabs
Your Saviour Tabs


Song lyrics



↑ Back to top | Tablatures and chords are parodies/interpretations of the original songs. You may use it for private study, scholarship, research or language learning purposes only
© 2014 AZChords.com Contact us | Privacy policy | DMCA | Add/correct tabs | Request tabs | Top 50 tabs