>
 >
Say Hello To Heaven 1

Say Hello To Heaven 1 Guitar Tabs

Temple Of The Dog - Say Hello To Heaven 1 chords, tabs, tablatures, lyrics

Guitar lessons | Add/correct | Request | Top 50 tabs Artists:  A B C D E F G H I J K L M N O P Q R S T U V W X Y Z 0-9

Say Hello To Heaven 1 Guitar Tabs – Temple Of The Dog

CD, Sheet music, Poster

Do you like Say Hello To Heaven 1? Share with your friends now
Bass TabsChordsTabsTabs v2Ukulele

Say hello 2 heaven
Band: Temple of the Dog
11112k6
Intro:
Riff-1
---- 3--  3-- 3-- 3-  0-----       0---------------------------|
---3-- 3--  3-- 3---3- 3---    3-   3--------------------------|
-----------------  0---   0-  0---       -0--------------------|
3---- 3-- 2-- 2------------------------------------------------|
----------------  1-----    0----------------------------------|
---------------------------------------------------------------|

riff-2
-----3-----3-------0--------------3------3-----0-------------------|
---3-----3-------3---3------------ -----------3---3----------------|
----------------0-------0-----0-------0-----0---------0------------|
-------------------------------------------------------------------|
3------3-----2-----------------------------------------------------|
----------------------------1--------1----0------------------------|
riff-3
F –     G#    -G     (3x)
1------4-------3------------------------------------------------|
1------4-------3------------------------------------------------|
2------5-------4------------------------------------------------|
3------6-------5------------------------------------------------|
3------6-------5------------------------------------------------|
1------4-------3------------------------------------------------|


I
Stanza cp. G-Am-C-Em, G-Am-C-F(M7)
II
  c.p.
Pre-chorus

F
-----------------------------------------------------------------|
1p0--------------------------------------------------------------|
-----2-2p0-------------------------------------------------------|
-------------3---0-----------------------------------------------|
--------------------3--------------------------------------------|
-----------------------------------------------------------------|

Repeat Riff 2

Riff 4    G---------Bb---------A----------C---Hold

Chorus
c.p  G------D(sus)------C--  (2x)

Repeat Riff 3 only once

III c.p stanza
IV c.p

Repeat pre chorus , riff 2, riff 4 and chorus

Solo (chorus chords)

--------------------------------------------------------------|
--------------------------------------8-----------------------|
--------------------------7---7h9-----------------------------|
---------5-5—5h7-7/9------------------------------------------|
---5h7--------------------------------------------------------|
-0------------------------------------------------------------|

-10------------------------------|
-12----10--h---12----------------|
------------------------ repeat--| 4x
---------------------------------|
---------------------------------|
---------------------------------|

15--12----------------------------------------------|
----------15--12------------------------------------|
--------------------14--12-12--14--12---------------|  (2x)
----------------------------------------------------|
----------------------------------------------------|
----------------------------------------------------|

-------------------------------------------------------------|
-------------------------------------------------------------|
-------------------------------------------------------------|
14b (14b-14b-14b-14b)-------12-----12-----12h14-12h14--------|
-------------------------------14-----14-----14--------------|
-------------------------------------------------------------|


-----10------10-----------15----------15---------------------|
---------------------15-17----15--17-------------------------|
/12------/12-------------------------------------------------|
-------------------------------------------------------------|
-------------------------------------------------------------|
-------------------------------------------------------------|

17-17b-(17b17b17b17b17b17b)-17rp15---------------------------|
-------------------------------------------------15h17-15----|
-------------------------------------------------------------|
-------------------------------------------------------------|
-------------------------------------------------------------|
-------------------------------------------------------------|

-------------------------------------------------------------|
-------------------------------------------------------------|
14h16-14\12-14----/16-16-16-12-------------------------------|
-------------------------------------------------------------|
-------------------------------------------------------------|
-------------------------------------------------------------|

-------------------------------------------------------------|
--------------------------15h17------------------------------|
14---16--16--16--16------------------------------------------|
14---14--14--14--17------------------------------------------|
-------------------------------------------------------------|
-------------------------------------------------------------|

---------15-15-----             ---------------------------------|
-15h17------------     repeat   -t20p15h17-----------------------|  8x
---------------------     4x      -------------------------------|
---------------------              ------------------------------|
--------------------                -----------------------------|
---------------------              ------------------------------|

--------------------------------------------5/7-----------------|
15\x----3-----3---3--3--3------3----3---------------------------|
---------0h2--2---2--2—2p3--0-----------------------------------|
----------------------------------------------------------------|
----------------------------------------------------------------|
----------------------------------------------------------------|

repeat riff 3 (once)

V.cp. hold  (harmonics)

VI cp.

Riff 5----G---Bb----B----C

Chorus

Riff-2 ---G


Im not sure about this tab… I think it is 85% correct..





Comments


Popular Temple Of The Dog tabs & chords
Hunger Strike Bass Tabs
Reach Down 1 Bass Tabs
Hunger Strike 1 Chords
Say Hello To Heaven Chords
Black Cat Tabs
Pushin' Forward Back Tabs
Pushin' Forward Back 1 Tabs
Pushing Forward Back 1 Tabs
Reach Down Tabs
All Night Thing Ukulele


Song lyrics



↑ Back to top | Tablatures and chords are parodies/interpretations of the original songs. You may use it for private study, scholarship, research or language learning purposes only
© 2014 AZChords.com Contact us | Privacy policy | DMCA | Add/correct tabs | Request tabs | Top 50 tabs