» » »

Temple Of The Dog, Hunger Strike Bass tabs (ver.1)

Artists:  A B C D E F G H I J K L M N O P Q R S T U V W X Y Z # 

Hunger Strike Bass tabs (ver.1)

Temple Of The Dog Tabs
Rating:
2/5 (2 votes)
Hunger Strike lessons Tabs too difficult? Try these video lessons and learn fast
                Temple of the Dog
Temple of the Dog

I tabbed the verses, sounds more complete to me.

G|-------------------------------------------------------|x12
D|-0-02-20--0-0--0-0-02-20--0-0-0------------------------|
A|-------------------------------------------------------|0:00-2:25
E|-------------------------------------------------------|

G|-------------------------------------------------------|x4
D|-------------------------------------------------------|
A|--01-01-0-9-10-9---------------------------------------|2:25-2:40
E|-------------------------------------------------------|

G|-------------------------------------------------------|x2
D|-0-02-20--0-0--0-0-02-20--0-0-0------------------------|
A|-------------------------------------------------------|2:40-3:08
E|-------------------------------------------------------|

G|-------------------------------------------------------|x4
D|-------------------------------------------------------|
A|--01-01-0-9-10-9---------------------------------------|3:08-3:22
E|-------------------------------------------------------|

G|-------------------------------------------------------|x2
D|-0-02-20--0-0--0-0-02-20--0-0-0------------------------|
A|-------------------------------------------------------|3:22-3:49
E|-------------------------------------------------------|

G|-------------------------------------------------------|x1
D|-------------------------------------------------------|
A|--01-01-0-9-10-9~--------------------------------------|3:49-END
E|-------------------------------------------------------|

Enjoy.
            
Submit corrections

comments powered by Disqus
↑ Back to top | Temple Of The Dog Bass for Hunger Strike. Lyrics for acoustic guitar and electric guitar. Tablatures and chords are parodies/interpretations of the original songs. You may use it for private study, scholarship, research or language learning purposes only