>
 >
See No Evil 1

See No Evil 1 Bass Tabs

Television - See No Evil 1 chords, tabs, tablatures, lyrics

Guitar lessons | Add/correct | Request | Top 50 tabs Artists:  A B C D E F G H I J K L M N O P Q R S T U V W X Y Z 0-9

See No Evil 1 Bass Tabs – Television

CD, Sheet music, Poster

Do you like See No Evil 1? Share with your friends now
Bass TabsBass Tabs v2TabsTabs v2
This is pretty easy for a Televison song. I'm not totally sure this is correct.
As always, listen to the song to get the rythm.

Intro                                       Pre-Verse
G-----------------|-10/12-10/12-10/12------|-------------------|
D-----------------|--------------------12\-|-----5----5---5----|
A-----------------|------------------------|-------------------|
E-----------------|------------------------|-3-3---3----3------|

G-----------------|------------------|-----------------|
D------5----5---5-|------5----5----5-|-----5-----------|
A-----------------|------------------|-----------------|
E-3-3----3----3---|-3-3----3----3----|-3-3---3--0-0-1--|

Verse
G-----------------|-----------------|-------------------|
D------5----5---5-|------5----------|------5----5----5--|
A-----------------|-----------------|-------------------|
E-3-3-----3---3---|-3-3----3--0-0-1-|-3-3----3-----3----|

G----------------------|-----------------|-------------------|
D------5----5----------|------3----3---3-|-----------2-2-3-4-|
A----------------------|-----------------|-3---(3)-3---------|
E--3-3---3----3--3-3-0-|-1-1----1----1---|-------------------|

G----------------|-----------------|----------------|------------------|
D------5---5---5-|------5----------|-----5----5---5-|------5-----------|
A----------------|-----------------|----------------|------------------|
E-3-3----3---3---|-3-3----3--0-0-1-|-3-3---3----3---|-3-3-----3--0-0-1-|

G---------------|----------------|------------------|--------------------|
D-----5---5---5-|-----5---5--3---|------3----3---3--|-----------2-2-3-4--|
A---------------|--------------5-|------------------|-3---(3)-3----------|
E-3-3---3---3---|-3-3---3--------|-1-1----1----1----|--------------------|
                                    Chorus
G----------------|-----------------|-----------|--------------|-----------|
D------5---5---5-|------5----------|-----------|--------------|-----------|
A----------------|-----------0-3-4-|-5--5-5--3-|-5--5-5-3-0---|-5--5-5--3-|
E-3-3----3---3---|-3-3----3--------|-----------|------------3-|-----------|

G--------------|-----------|------7-5-------|-------|
D--------------|-----------|-----------7-5--|-------|
A-5--5-5-3-0---|-5--5-5--3-|--5-------------|-------|
E------------3-|-----------|----------------|-h3-h3-|

G-------|---------------------|--------|
D-------|---------------------|--------|
A-------|--------h3----(3)----|--3/7\3-|
E-h3-h3-|-h3-h3---------------|--------|

Pre-Verse
G-----------------|-----------------|----------------|----------------|
D-----5----5---5--|------5----5---5-|------5---5---5-|-----5----------|
A-----------------|-----------------|----------------|----------------|
E-3-3---3----3----|-3-3----3----3---|-3-3----3---3---|-3-3---3--0-0-1-|

Verse
G-----------------|-----------------|-------------------|
D------5----5---5-|------5----------|------5----5----5--|
A-----------------|-----------------|-------------------|
E-3-3-----3---3---|-3-3----3--0-0-1-|-3-3----3-----3----|

G----------------------|-----------------|-------------------|
D------5----5----------|------3----3---3-|-----------2-2-3-4-|
A----------------------|-----------------|-3---(3)-3---------|
E--3-3---3----3--3-3-0-|-1-1----1----1---|-------------------|

G----------------|-----------------|----------------|------------------|
D------5---5---5-|------5----------|-----5----5---5-|------5-----------|
A----------------|-----------------|----------------|------------------|
E-3-3----3---3---|-3-3----3--0-0-1-|-3-3---3----3---|-3-3-----3--0-0-1-|

G---------------|----------------|------------------|
D-----5---5---5-|-----5---5--3---|------3----3---3--|
A---------------|--------------5-|------------------|
E-3-3---3---3---|-3-3---3--------|-1-1----1----1----|

G-------------------|----------------|-----------------|
D-----------2-2-3-4-|------5---5---5-|------5----------|
A-3---(3)-3---------|----------------|-----------0-3-4-|
E-------------------|-3-3----3---3---|-3-3----3--------|

Chorus
G-----------|--------------|-----------|--------------|-----------|
D-----------|--------------|-----------|--------------|-----------|
A-5--5-5--3-|-5--5-5-3-0---|-5--5-5--3-|-5--5-5-3-0---|-5--5-5--3-|
E-----------|------------3-|-----------|------------3-|-----------|

G------7-5-------|-------|-------|---------------------|--------|
D-----------7-5--|-------|-------|---------------------|--------|
A--5-------------|-------|-------|--------h3----(3)----|--3/7\3-|
E----------------|-h3-h3-|-h3-h3-|-h3-h3---------------|--------|

Solo
G-----------------|----------------|-----------------|----------------|
D------5----5---5-|-----5----------|------5----5---5-|-----5----5-3---|
A-----------------|----------------|-----------------|--------------5-|
E-3-3----3----3---|-3-3---3--0-0-1-|-3-3-----3---3---|-3-3---3--------|

G-----------------|--------------------|---------------|------------------|
D------3----3---3-|------------2-2-3-4-|-----5---5---5-|------5-----------|
A-----------------|-3---(3)--3---------|---------------|-----------0-3-4--|
E-1-1----1----1---|--------------------|-3-3---3---3---|-3-3----3---------|

G-----------------|----------------|-----------------|----------------|
D------5----5---5-|-----5----------|------5----5---5-|-----5----5-3---|
A-----------------|----------------|-----------------|--------------5-|
E-3-3-----3---3---|-3-3---3--0-0-1-|-3-3-----3---3---|-3-3---3--------|

G-----------------|--------------------|---------------|----------------|
D------3----3---3-|------------2-2-3-4-|-----5---5---5-|------5---------|
A-----------------|-3---(3)--3---------|---------------|----------0-3-4-|
E-1-1----1----1---|--------------------|-3-3---3---3---|-3-3----3-------|

Verse
G-----------------|-----------------|-------------------|
D------5----5---5-|------5----------|------5----5----5--|
A-----------------|-----------------|-------------------|
E-3-3-----3---3---|-3-3----3--0-0-1-|-3-3----3----3-----|

G----------------------|-----------------|--------------------|
D------5----5----------|------3----3---3-|-----------2-2-3-4--|
A----------------------|-----------------|-3---(3)-3----------|
E--3-3---3----3--3-3-0-|-1-1----1----1---|--------------------|

G-----------------|-----------------|----------------|-------------------|
D------5----5---5-|------5----------|-----5----5---5-|------5------------|
A-----------------|-----------0-3-4-|----------------|-------------------|
E-3-3----3----3---|-3-3----3--------|-3-3---3----3---|-3-3-----3--0-0-1--|

G------------------|------------------|--------------------|----------------|
D------5-----------|------3----3---3--|-----------2-2-3-4--|------5---5---5-|
A------------------|------------------|-3---(3)-3----------|----------------|
E--3-3---3--3-3-0--|-1-1----1----1----|--------------------|-3-3----3---3---|
                  Chorus
G----------------|-----------|--------------|-----------|--------------|
D------5---------|-----------|--------------|-----------|--------------|
A----------0-3-4-|-5--5-5--3-|-5--5-5-3-0---|-5--5-5--3-|-5--5-5-3-0---|
E-3-3----3-------|-----------|------------3-|-----------|------------3-|

G-----------|--------------|-------|-------|---------------------|--------|
D-----------|--------------|-------|-------|---------------------|--------|
A-5--5-5--3-|-5--5-5-3-0---|-------|-------|--------h3----(3)----|--3/7\3-|
E-----------|------------3-|-h3-h3-|-h3-h3-|-h3-h3---------------|--------|

Outro
G-----------------|-----------------|-----------------|
D------5----5---5-|------5----------|------5----5---5-|
A-----------------|-----------------|-----------------|
E-3-3----3----3---|-3-3----3--0-0-1-|-3-3----3----3---|

G-----------------|----------------|-----------------|
D------5----5-3---|*-----5---5-3---|--------2-3-4-5-*|
A---------------3-|*-------------5-|-3-3--3---------*|
E-3-3----3--------|-3-3---3--------|-----------------|





Comments


Popular Television tabs & chords
Ain't That Nothin' Bass Tabs
Glory Bass Tabs
Torn Curtain Bass Tabs
Venus Bass Tabs
1880 Or S O Tabs
Eastenders 1 Tabs
Marquee Moon 1 Tabs
Marquee Moon 3 Tabs
Mars Tabs
Venus Ukulele


Song lyrics



↑ Back to top | Tablatures and chords are parodies/interpretations of the original songs. You may use it for private study, scholarship, research or language learning purposes only
© 2014 AZChords.com Contact us | Privacy policy | DMCA | Add/correct tabs | Request tabs | Top 50 tabs