» » »

See No Evil Tabs (ver.1)

Artists:  A B C D E F G H I J K L M N O P Q R S T U V W X Y Z # 

See No Evil Tabs (ver.1)

Television
Rating:
4/5 (1 vote)

Hard to play? Try these video lessons and learn fast.
                

On this song, Richard Lloyd takes up lead guitar while Tom Verlaine plays it cool in
guitar.
A lot simpler than it sounds. Here's how I play the beast:

Intro/Verse
Guitar 1 (Tom)
  G
e--------------------------------------------------------|
B--------------------------------------------------------|
G--------------------------------------------------------|
D--------------------------------------------------------|
A-5-5-5--5-5-5--5-5-5--5-5-5--5-5-5--5-5-5--5-5-5--5-5-5-|
E-3-3-3--3-3-3--3-3-3--3-3-3--3-3-3--3-3-3--3-3-3--3-3-3-|

                              F         C7
e-----------------------------------------------------|
B-----------------------------------------------------|
G---------------------------------------3-3--3--------|
D---------------------------------------2-2--2--------|
A-5-5-5--5-5-5--5-5-5--5-5-5--3-3-3--3--3-3--3--------|
E-3-3-3--3-3-3--3-3-3--3-3-3--1-1-1--1----------------|

Guitar 2 (Richard)
e-----------------|
B-----0-0h1p0-----|
G-0-2---------2-0-|
D-----------------|
A-----------------|
E-----------------|repeated several times until the C7 when...

e------------------|
B------------------|
G-5-5-3-5b-3-5b-5b-|(only bend slightly, you'll get it if you listen)
D------------------|
A------------------|
E------------------|

Chorus
Guitar 1 (Tom)
  D7              D7              D7
e-2---------------2---------------2---------------|
B-1-(let it ring)-1---------------1---------------|
G-2---------------2---------------2---------------|
D-0---------------0---------------0---------------|
A-------------------------------------------------|
E-------------------------------------------------|

  G             C7
e----------------------------------------------|
B---------------5------------------------------|
G---------------3------------------------------|
D---------------5------------------------------|
A-5-5--5-5--5-5-3--2-2-1-1-0-0-----------------|
E-3-3--3-3--3-3----------------4-4-0-0-1-1-2-2-|

Guitar 2 (Richard)
This throughout the whole chorus, you should know where to stop by listening
e-3-------3-------3-|
B-------0-------0---|
G-----5-------5-----|
D---0-------0-------|
A-------------------|
E-------------------|

I can't figure the solo out, I'll leave that up to you.

Coda
Guitar 1 (Tom)
  C7    G
e----------------|
B----------------|
G-3-3-3----------|
D-2-2-2----------|
A-3-3-3-5-5-5--5-|
E-------3-3-3--3-|repeat until fade out

Guitar 2 (Richard)
e----------------------------------|
B-----0----------------0-0h1p0-----|
G-0-2---5b-3-5b-5b-0-2---------2-0-|
D----------------------------------|
A----------------------------------|
E----------------------------------|repeat until fade out
            
Hard to play? Try these video lessons and learn fast. | Correct




comments powered by Disqus
↑ Back to top | Tablatures and chords are parodies/interpretations of the original songs. You may use it for private study, scholarship, research or language learning purposes only