» » »

Television, See No Evil Bass tabs (ver.1)

Artists:  A B C D E F G H I J K L M N O P Q R S T U V W X Y Z # 

See No Evil Bass tabs (ver.1)

Television Tabs
Rating:
0/5 (0 votes)
See No Evil lessons Tabs too difficult? Try these video lessons and learn fast
                                         SEE NO EVIL
                         Television
                         Marquee Moon


Intro:
G-10h12--10h12--10h12-|
D---------------------|
A---------------------|
E---------------------|

Verse:
G------------------------------|
D----------5-----5-5-5-----5---|
A------------------------------|
E-0-1-2-3----3----------3----3-|

G-----------------------------|
D------------------------3-5--|
A-------3-3-3-3-3--3-5--------|
E-1-1-1-----------------------|

Chorus:
G-----------------------|
D-----------------------|
A-5-3-5-3-5-5\7-5-------|
E-----------------7-5---|

G-----------------|
D-----------------|
A---------------3-|
E-3-3--3-3--3-3---|

Outro:
G---------------------------------|
D---------------3-5-----5---------|
A-3-3-3-3-3-3-5-------------------|
E--------------------3---3--0-1-3-|
            

comments powered by Disqus
↑ Back to top | Television Bass for See No Evil. Lyrics for acoustic guitar and electric guitar. Tablatures and chords are parodies/interpretations of the original songs. You may use it for private study, scholarship, research or language learning purposes only