>
 >
Hop A Plane 2

Hop A Plane 2 Guitar Tabs

Tegan And Sara - Hop A Plane 2 chords, tabs, tablatures, lyrics

Guitar lessons | Add/correct | Request | Top 50 tabs Artists:  A B C D E F G H I J K L M N O P Q R S T U V W X Y Z 0-9

Hop A Plane 2 Guitar Tabs – Tegan And Sara

CD, Sheet music, Poster

Do you like Hop A Plane 2? Share with your friends now
Bass TabsChordsTabsTabs v2Tabs v3Tabs v4Tabs v5Ukulele
-------------------------------------------------------------------------------
                             Hop A Plane - Tegan and Sara
-------------------------------------------------------------------------------

Tuning: Standard

Intro/Verse
e|----------------------------------------|
B|----------------------------------------|
G|--7-7-xx--12-12-xx--7-7-xx--------------|        x6
D|--7-7-xx--12-12-xx--7-7-xx--7-7-xx------|
A|--5-5-xx--10-10-xx--5-5-xx--7-7-xx------|
E|----------------------------5-5-xx------|

Chorus
e|----------------------------------------|
B|----------------------------------------|
G|--7-----6-------------------------------|
D|--7-x8--7-x8--5-----7-------------------|
A|--5-----4-----5-x8--7-x8----------------|
E|--------------3-----5-------------------|

Fill
e|----------------------------------------|
B|----------------------------------------|
G|--7-7-xx--12-12-xx--7-7-xx--------------|        x2
D|--7-7-xx--12-12-xx--7-7-xx--7-7-xx------|
A|--5-5-xx--10-10-xx--5-5-xx--7-7-xx------|
E|----------------------------5-5-xx------|

Verse 2
e|----------------------------------------|
B|----------------------------------------|
G|--7-----12---7--------------------------|        x4
D|--7-x5--12---7-x5--7--------------------|
A|--5-----10---5-----7--------------------|
E|-------------------5--------------------|

Chorus
e|----------------------------------------|
B|----------------------------------------|
G|--7-----6-------------------------------|        x2
D|--7-x8--7-x8--5-----7-------------------|
A|--5-----4-----5-x8--7-x8----------------|
E|--------------3-----5-------------------|

Bridge (Palm Muted = .)
e|----------------------------------------|
B|----------------------------------------|
G|--7-----6-------------------------------|
D|--7-x8--7-x8--5-----7-------------------|
A|--5-----4-----5-x8--7-x8----------------|
E|--------------3-----5-------------------|
    .     .     .     .

e|----------------------------------------|
B|----------------------------------------|
G|--7-----6-------------------------------|
D|--7-x8--7-x8--5-----7-------------------|
A|--5-----4-----5-x8--7-x8----------------|
E|--------------3-----5-------------------|

Chorus
e|----------------------------------------|
B|----------------------------------------|
G|--7-----6-------------------------------|        x4
D|--7-x8--7-x8--5-----7-------------------|
A|--5-----4-----5-x8--7-x8----------------|
E|--------------3-----5-------------------|

Outro
e|----------------------------------------|
B|----------------------------------------|
G|--7-7-xx--12-12-xx--7-7-xx--------------|        x4
D|--7-7-xx--12-12-xx--7-7-xx--7-7-xx------|
A|--5-5-xx--10-10-xx--5-5-xx--7-7-xx------|
E|----------------------------5-5-xx------|

e|----------|
B|----------|
G|--12-12---|
D|--12-12---|
A|--10-10---|
E|----------|

- I'm 99.9% sure this is how Tegan plays it, especially after watching the "Hop A Plane" 
chapter on The Con DVD.





Comments


Popular Tegan And Sara tabs & chords
Burn Your Life Down Bass Tabs
Divided 2 Chords
Hell Chords
I Was A Fool Chords
My Number Chords
City Girl 2 Tabs
Dark Come Soon Tabs
Monday Monday Monday 3 Tabs
Walking With A Ghost 2 Tabs
Guilty As Charged Ukulele


Song lyrics



↑ Back to top | Tablatures and chords are parodies/interpretations of the original songs. You may use it for private study, scholarship, research or language learning purposes only
© 2014 AZChords.com Contact us | Privacy policy | DMCA | Add/correct tabs | Request tabs | Top 50 tabs