» » »

Hop A Plane Tabs (ver.2)

Artists:  A B C D E F G H I J K L M N O P Q R S T U V W X Y Z # 

Hop A Plane Tabs (ver.2)

Tegan And Sara
Rating:
0/5 (0 votes)

Hard to play? Try these video lessons and learn fast.
                Tuning EBGDAE


Intro / Verses

E-----------------------------------------|
B-----------------------------------------|
G-77--12--77------------------------------|
D-77--12--77--77--------------------------|
A-55--10--55--77--------------------------|
E-------------55--------------------------|

Chorus

E-----------------------------------------|
B-----------------------------------------|
G-7777------------------------------------|
D-7777-7777-5555-7777---------------------|
A-5555-7777-5555-7777---------------------|
E------5555-3333-5555---------------------|
            
Hard to play? Try these video lessons and learn fast. | Correct




comments powered by Disqus
↑ Back to top | Tablatures and chords are parodies/interpretations of the original songs. You may use it for private study, scholarship, research or language learning purposes only