» » »

Tegan And Sara, I Know I Know I Know Tabs (ver.1)

Artists:  A B C D E F G H I J K L M N O P Q R S T U V W X Y Z # 

I Know I Know I Know Tabs (ver.1)

Tegan And Sara Tabs
 Rating:
4/5 (4 votes)
I Know I Know I Know lessons Tabs too difficult? Try these video lessons and learn fast
                GUITAR ONE
Verse
|-----------------------------|
|-----------------------------|
|---12-------9--------7-------|
|---13-------10-------8-------|x2
|---13-x32---10-x16---8-x16---|
|---11-------8--------6-------|
    .        .        .

Chorus
|-------------------|
|-------------------|
|---5-------7-------|
|---6-------8-------|
|---6-x16---8-x16---|
|---4-------6-------|
    .       .

Verse 

Chorus

Bridge
|-------------------------------------|
|-------------------------------------|
|---12-------9--------5-------7-------|
|---13-------10-------6-------8-------|
|---13-x16---10-x16---6-x16---8-x16---|
|---11-------8--------4-------6-------|

Verse

Chorus

Bridge x2

Chorus x2

Outro
|-------------------------------------|-------------|
|-------------------------------------|-------------|
|---12-------9--------5-------7-------|---12---12---|
|---13-------10-------6-------8-------|---13---13---|
|---13-x16---10-x16---6-x16---8-x16---|---13---13---|
|---11-------8--------4-------6-------|---11---11---|
    .        .        .       .           .    .

GUITAR TWO
Verse 1
Blank first part of verse.
“back from the last..”    “I know, I know, I know..”
|----------------------|  |-------------------------------------------|
|----------------------|  |-------------------------------------------|
|------------8-8-------|  |------------5-5-----------------3-3--------|
|-------8-8-------8-8--|x2|-------5-5-------5-5-------3-3-------3-3---|
|--6-6-----------------|  |--3-3-----------------1-1------------------|
|----------------------|  |-------------------------------------------|
   . .  . .  . .  . .        . .  . .  . .  . .  . .  . .  . .  . .

Blank first Chorus

Verse 2 x2
|----------------------|  |-------------------------------------------|
|----------------------|  |-------------------------------------------|
|------------8-8-------|  |------------5-5-----------------3-3--------|
|-------8-8-------8-8--|x2|-------5-5-------5-5-------3-3-------3-3---|
|--6-6-----------------|  |--3-3-----------------1-1------------------|
|----------------------|  |-------------------------------------------|
   . .  . .  . .  . .        . .  . .  . .  . .  . .  . .  . .  . .

Chorus
|-------------------|
|-------------------|
|-------------------|
|---------7--8--7~--|
|--8--10------------|
|-------------------|

Bridge
|-------------------------------------|
|-------------------------------------|
|---12-------9--------5-------7-------|
|---13-------10-------6-------8-------|
|---13-x16---10-x16---6-x16---8-x16---|
|---11-------8--------4-------6-------|
    .        .        .       .

Verse 3
Black for “last night I was writing..”
“I know, I know, I know..”
|-------------------------------------------|
|-------------------------------------------|
|------------5-5-----------------3-3--------|
|-------5-5-------5-5-------3-3-------3-3---|
|--3-3-----------------1-1------------------|
|-------------------------------------------|
   . .  . .  . .  . .  . .  . .  . .  . .
“I wake up..”             “I know..”
|----------------------|  |-------------------------------------------|
|----------------------|  |-------------------------------------------|
|------------8-8-------|  |------------5-5-----------------3-3--------|
|-------8-8-------8-8--|x2|-------5-5-------5-5-------3-3-------3-3---|
|--6-6-----------------|  |--3-3-----------------1-1------------------|
|----------------------|  |-------------------------------------------|
   . .  . .  . .  . .        . .  . .  . .  . .  . .  . .  . .  . .

Chorus

Bridge x2

Black until outro.

Outro
|----------------------|  |-------|
|----------------------|  |-------|
|-------7-8-7----------|  |--8-8--|
|--8-10-------10-8-----|x2|-------|
|------------------10--|  |-------|
|----------------------|  |-------|


that's it. i'm almost 100% sure it's right. it's the acoustic version they play on vh1
live. i tabbed speak slow also, so check that out too. LATER EVERYONE.
            
Submit corrections

comments powered by Disqus
↑ Back to top | Tegan And Sara Tabs for I Know I Know I Know. Lyrics for acoustic guitar and electric guitar. Tablatures and chords are parodies/interpretations of the original songs. You may use it for private study, scholarship, research or language learning purposes only