» » »

Back In Your Head Tabs (ver.1)

Artists:  A B C D E F G H I J K L M N O P Q R S T U V W X Y Z # 

Back In Your Head Tabs (ver.1)

Tegan And Sara
Rating:
3/5 (8 votes)

Hard to play? Try these video lessons and learn fast.
                
Tuning (low-high):
| E | D# | A# | D# | G | E |

Capo: 2nd fret

If you need help with this tuning, go here:

INTRO:
|----------------------|
|--0-0--0-0--0-0--0-0--|
|--0-0--0-0--0-0--0-0--|
|--9-9--7-7--7-7--5-5--|
|--0-0--0-0--7-7--5-5--|
|----------------------|

VERSE:
(Build a wall of books...)
|------------------------------------------|
|--0-0--0-0--0-0--0-0--0-0--0-0--0-0--0-0--|
|--0-0--0-0--0-0--0-0--0-0--0-0--0-0--0-0--|
|--2-2--2-2--2-2--2-2--5-5--5-5--5-5--5-5--|
|--0-0--0-0--0-0--0-0--0-0--0-0--0-0--0-0--|
|------------------------------------------|

CHORUS:
(I just walk back in your head...)
|----------------------|
|--0-0--0-0--0-0--0-0--|
|--0-0--0-0--0-0--0-0--|
|--9-9--7-7--7-7--5-5--|
|--0-0--0-0--7-7--5-5--|
|----------------------|

POST-CHORUS:
(When I get a little scared...)
|------------------------------------------|
|------------------------------------------|
|--9-9--9-9--9-9--9-9--5-5--5-5--5-5--5-5--|
|--9-9--9-9--9-9--9-9--5-5--5-5--5-5--5-5--|
|--9-9--9-9--9-9--9-9--5-5--5-5--5-5--5-5--|
|------------------------------------------|

|------------------------------------------|
|------------------------------------------|
|--7-7--7-7--9-9--9-9--5-5--5-5--5-5--5-5--|
|--7-7--7-7--9-9--9-9--5-5--5-5--5-5--5-5--|
|--7-7--7-7--9-9--9-9--5-5--5-5--5-5--5-5--|
|------------------------------------------|

POST-CHORUS 2:
|------------------------------------------|
|------------------------------------------|
|--9-9--9-9--9-9--9-9--5-5--5-5--5-5--5-5--|
|--9-9--9-9--9-9--9-9--5-5--5-5--5-5--5-5--|
|--9-9--9-9--9-9--9-9--5-5--5-5--5-5--5-5--|
|------------------------------------------|

|------------------------------------------|
|------------------------------------------|
|--9-9--9-9--9-9--9-9--5-5--5-5--5-5--5-5--|
|--9-9--9-9--9-9--9-9--5-5--5-5--5-5--5-5--|
|--9-9--9-9--9-9--9-9--5-5--5-5--5-5--5-5--|
|------------------------------------------|

BRIDGE:
(Run, run, run...)
|------------------------------------------|
|------------------------------------------|
|--7-7--7-7--9-9--9-9--5-5--5-5--5-5--5-5--|
|--7-7--7-7--9-9--9-9--5-5--5-5--5-5--5-5--|
|--7-7--7-7--9-9--9-9--5-5--5-5--5-5--5-5--|
|------------------------------------------|

ORDER OF PARTS:
-Intro (x4)
-Verse (x4)
-Chorus (x6)
-Post-Chorus
-Verse (x4)
-Chorus (x6)
-Post-Chorus 2
-Bridge (x2)
-Chorus (x8)
            
Hard to play? Try these video lessons and learn fast. | Correct




comments powered by Disqus
↑ Back to top | Tablatures and chords are parodies/interpretations of the original songs. You may use it for private study, scholarship, research or language learning purposes only