» » »

Tegan And Sara, Back In Your Head Tabs (ver.2)

Artists:  A B C D E F G H I J K L M N O P Q R S T U V W X Y Z # 

Back In Your Head Tabs (ver.2)

Tegan And Sara Tabs
 Rating:
4.5/5 (8 votes)
Back In Your Head lessons Tabs too difficult? Try these video lessons and learn fast
                


Me being lazy and all just decided to play it using HALF-STEP tuning but it's still CAPO 2.
I think it sounds right to me/my ears but if
you don't find this suitable then there's always the other tab.
Oh yeah, all the tabs are relative to the Capo.

Intro/chorus:     X4
|--------------------------------------|
|--------------------------------------|
|---4-4-x----4-4-x----8-8-x----6-6-x---|
|---6-6-x----4-4-x----9-9-x----7-7-x---|
|---7-7-x----6-6-x----9-9-x----7-7-x---|
|---0-0-x----0-0-x----7-7-x----5-5-x---|

Verse:     X4
|-------------------------------------------------------------------------|
|-------------------------------------------------------------------------|
|---4-4-x----4-4-x----4-4-x----4-4-x----4-4-x----4-4-x----4-4-x----4-4-x--|
|---2-2-x----2-2-x----2-2-x----2-2-x----6-6-x----6-6-x----6-6-x----6-6-x--|
|---4-4-x----4-4-x----4-4-x----4-4-x----7-7-x----7-7-x----7-7-x----7-7-x--|
|---0-0-x----0-0-x----0-0-x----0-0-x----0-0-x----0-0-x----0-0-x----0-0-x--|


chorus:     x6?
|--------------------------------------|
|--------------------------------------|
|---4-4-x----4-4-x----8-8-x----6-6-x---|
|---6-6-x----4-4-x----9-9-x----7-7-x---|
|---7-7-x----6-6-x----9-9-x----7-7-x---|
|---0-0-x----0-0-x----7-7-x----5-5-x---|


"when I get a little....":
|--------------------------------------|
|--------------------------------------|
|---8-8-x---8-8-x---8-8-x---8-8-x------|
|---9-9-x---9-9-x---9-9-x---9-9-x------|
|---9-9-x---9-9-x---9-9-x---9-9-x------|
|---7-7-x---7-7-x---7-7-x---7-7-x------|

|--------------------------------------|
|--------------------------------------|
|---6-6-x---6-6-x---6-6-x---6-6-x------|
|---7-7-x---7-7-x---7-7-x---7-7-x------|
|---7-7-x---7-7-x---7-7-x---7-7-x------|
|---5-5-x---5-5-x---5-5-x---5-5-x------|

Bridge:
|--------------------------------------|
|--------------------------------------|
|---8-8-x---8-8-x---8-8-x---8-8-x------|
|---9-9-x---9-9-x---9-9-x---9-9-x------|
|---9-9-x---9-9-x---9-9-x---9-9-x------|
|---7-7-x---7-7-x---7-7-x---7-7-x------|

|--------------------------------------|
|--------------------------------------|
|---6-6-x---6-6-x---6-6-x---6-6-x------|
|---7-7-x---7-7-x---7-7-x---7-7-x------|
|---7-7-x---7-7-x---7-7-x---7-7-x------|
|---5-5-x---5-5-x---5-5-x---5-5-x------|

I think that's right.. I don't know about the timing and stuff,
but I think the tabs are on the dot for being half-step.

Intro: x4
verse 1: x4
Chorus: x6
("..."): x3
Verse 2: x4
Chorus :  x6
("..."): x3
Bridge: x2


Eh, I guess this is fine. :|
            
Submit corrections

comments powered by Disqus
↑ Back to top | Tegan And Sara Tabs for Back In Your Head. Lyrics for acoustic guitar and electric guitar. Tablatures and chords are parodies/interpretations of the original songs. You may use it for private study, scholarship, research or language learning purposes only