» » »

Prinsesa Tabs (ver.5)

Artists:  A B C D E F G H I J K L M N O P Q R S T U V W X Y Z # 

Prinsesa Tabs (ver.5)

Teeth
Rating:
3/5 (3 votes)

Hard to play? Try these video lessons and learn fast.
                intro:
]-----------------------------------------------|
]-----------------------------------------------|
]-----------------------------------------------|
]--7777--77777--5555----------------------------|
]--5555--44444--3333--55555---------------------|
]---------------------33333---------------------|

adlib:1
]--777--9--11--7--777--9--11--7-777--9--11--9--11--9--|
]-----------------------------------------------------|
]-----------------------------------------------------|
]-----------------------------------------------------|
]-----------------------------------------------------|
]-----------------------------------------------------|

adlib:2
]--15-15-15--17--19--15-15-15--17--19--15-15-15--17--19--17--19--17--|
]--------------------------------------------------------------------|
]--------------------------------------------------------------------|
]--------------------------------------------------------------------|
]--------------------------------------------------------------------|
]--------------------------------------------------------------------|

verse1:
]-----------------------------------------------|
]-----------------------------------------------|
]-----------------------------------------------|
]--7777--77777--5555----------------------------|
]--5555--44444--3333--55555---------------------|
]---------------------33333---------------------|
paulit ulit lng hanggang umabot sa chorus

Chorus
]-----------------------------------------------|
]-----------------------------------------------|
]-----------------------------------------------|
]----------------777777777777-------------------|
]--777777777777--555555555555-------------------|
]--555555555555---------------------------------|

tapus ung adlib ulit
adlib:1
]--777--9--11--7--777--9--11--7-777--9--11--9--11--9--|
]-----------------------------------------------------|
]-----------------------------------------------------|
]-----------------------------------------------------|
]-----------------------------------------------------|
]-----------------------------------------------------|

adlib:2
]--15-15-15--17--19--15-15-15--17--19--15-15-15--17--19--17--19--17--|
]--------------------------------------------------------------------|
]--------------------------------------------------------------------|
]--------------------------------------------------------------------|
]--------------------------------------------------------------------|
]--------------------------------------------------------------------|

verse2:
]-----------------------------------------------|
]-----------------------------------------------|
]-----------------------------------------------|
]--7777--77777--5555----------------------------|
]--5555--44444--3333--55555---------------------|
]---------------------33333---------------------|
ganun lng din hanggang sa chorus taz..

chorus:
]-----------------------------------------------|
]-----------------------------------------------|
]-----------------------------------------------|
]----------------777777777777-------------------|
]--777777777777--555555555555-------------------|
]--555555555555---------------------------------|
taz adlib ulit...

adlib:1
]--777--9--11--7--777--9--11--7-777--9--11--9--11--9--|
]-----------------------------------------------------|
]-----------------------------------------------------|
]-----------------------------------------------------|
]-----------------------------------------------------|
]-----------------------------------------------------|

adlib:2
]--15-15-15--17--19--15-15-15--17--19--15-15-15--17--19--17--19--17--|
]--------------------------------------------------------------------|
]--------------------------------------------------------------------|
]--------------------------------------------------------------------|
]--------------------------------------------------------------------|
]--------------------------------------------------------------------|

yakang yaka nyu toh ^^
            
Hard to play? Try these video lessons and learn fast. | Correct




comments powered by Disqus
↑ Back to top | Tablatures and chords are parodies/interpretations of the original songs. You may use it for private study, scholarship, research or language learning purposes only