» » »

Teeth, Laklak Bass tabs (ver.1)

Artists:  A B C D E F G H I J K L M N O P Q R S T U V W X Y Z # 

Laklak Bass tabs (ver.1)

Teeth Tabs
Rating:
3/5 (1 vote)
Laklak lessons Tabs too difficult? Try these video lessons and learn fast
                Laklak:Teeth
Bass Tab

Intro:
G-----------------|
D-----------------| 4x
A-----------------|
E-2-22-2-2--77--5-|

Verse 1:
G-----------------|
D-----------------| 4x
A-----------------|
E-2-22-2-2--77--5-|

Chorus:
G-------------------------------------|
D-------------------------------------|
A------------5-55555555---------------|
E-2-222222222-----------555------33---|


G-------------------------------------|
D-------------------------------------|
A------------5-55555555---------------|
E-2-222222222----------555-------33---|

G-------------------------------------|
D-------------------------------------|
A------------5-55555555---------------|
E-2-222222222-----------555------33---|


G----------------------------------------------------------------------------|
D----------------------------------------------------------------------------|
A----------------------------------------------------------------------------|
E-3-3333333333333333-2-222222222222222-5-5555555555555555-3-3333333333333333-|

G----------------------------------|
D----------------------------------|
A----------------------------------|
E-5-5555555555555555-2-22222222-0~-|

Interlude:
G-----------------|
D-----------------| 4x
A-----------------|
E-2-22-2-2--88--5-|

Verse 2:
G-----------------|
D-----------------| 4x
A-----------------|
E-2-22-2-2--77--5-|

(Repeat Chorus)

Adlib:
G-----------------|
D-----------------| 4x
A-----------------|
E-2-22-2-2--88--5-|
(Repeat Chorus)

Outro:
G-----------------|
D-----------------| 4x
A-----------------|
E-2-22-2-2--88--5-|

End:
G-----|
D-----|
A-----|

Cnsya na kung mali,this is my first tym dats y.F u have any corrections or you found the 
            

comments powered by Disqus
↑ Back to top | Teeth Bass for Laklak. Lyrics for acoustic guitar and electric guitar. Tablatures and chords are parodies/interpretations of the original songs. You may use it for private study, scholarship, research or language learning purposes only