» » »

Teeth, Prinsesa Bass tabs (ver.3)

Artists:  A B C D E F G H I J K L M N O P Q R S T U V W X Y Z # 

Prinsesa Bass tabs (ver.3)

Teeth Tabs
Rating:
0/5 (0 votes)
Prinsesa lessons Tabs too difficult? Try these video lessons and learn fast
                Prinsesa
The teeth

Intro 
G|---------------------------------------------------|
D|---------------------------------------------------|
A|-5--5--5-5-5--4--4--4-4-4--2--2--2-2-2-------------|
E|---------------------------------------3--3--3-3-3-|4x

Verse1
G|---------------------------------------------------|
D|---------------------------------------------------|
A|-5--5--5-5-5--4--4--4-4-4--2--2--2-2-2-------------|
E|---------------------------------------3--3--3-3-3-|4x

Repeat verse1

Refrain
G|-----------------------------------------------------------------|
D|---------------------------------5-5-5-5-5-5-5-5-5-5-5-5-5-5-5-5-|
A|-0-0-0-0-0-0-0-0-0-0-0-0-0-0-0-0---------------------------------|
E|-----------------------------------------------------------------|3x

G|-----------------------------------------------------------------|
D|---------------------------------5-5-5-5-5-5-5-5-5-5-5-5-5-5-5-5-|
A|-0-0-0-0-0-0-0-0-0-0-0-0-0-0-0-----------------------------------|
E|------------------------------5\---------------------------------|

G|---------------------------------------------------|
D|---------------------------------------------------|
A|-5--5--5-5-5--4--4--4-4-4--2--2--2-2-2-------------|
E|---------------------------------------3--3--3-3-3-|2x

Instrumental 
G|---------------------------------------------------|
D|---------------------------------------------------|
A|-5--5--5-5-5--4--4--4-4-4--2--2--2-2-2-------------|
E|---------------------------------------3--3--3-3-3-|2x

Repeat verse1
Repeat refrain

Instrumental 
G|---------------------------------------------------|
D|---------------------------------------------------|
A|-5--5--5-5-5--4--4--4-4-4--2--2--2-2-2-------------|
E|---------------------------------------3--3--3-3-3-|4x

Repeat refrain

outro
G|---------------------------------------------------|
D|---------------------------------------------------|
A|-5--5--5-5-5--4--4--4-4-4--2--2--2-2-2-------------|
E|---------------------------------------3--3--3-3-3-|till fade
            
Submit corrections

comments powered by Disqus
↑ Back to top | Teeth Bass for Prinsesa. Lyrics for acoustic guitar and electric guitar. Tablatures and chords are parodies/interpretations of the original songs. You may use it for private study, scholarship, research or language learning purposes only