» » »

Prinsesa Tabs

Artists:  A B C D E F G H I J K L M N O P Q R S T U V W X Y Z # 

Prinsesa Tabs

(ver. 1)
Teeth Tabs
 Rating:
3.4/5 (11 votes)
    Prinsesa lessons Tabs too difficult? Try these video lessons and learn fast
                -------------------------------------------------------------------------------
-------------------------------------------------------------------------------

Tuning:eBGDAE

Intro : Guitar 1

e|-----------------------------|
B|-----------------------------|
G|--77777--77777--55555--------|
D|--77777--77777--55555--55555-|  4x
A|--55555--44444--33333--55555-|
E|-----------------------33333-|

Guitar 2

e|------------------------------------------------|
B|------------------------------------------------|
G|--7777-9h11--7777-9h11--7777-9-11-/12-11-9-11-9-|
D|------------------------------------------------| 4x
A|------------------------------------------------|
E|------------------------------------------------|

Verse 1 :

Guitar 1 and Guitar 2

e|-----------------------------|
B|-----------------------------|
G|--77777--77777--55555--------|
D|--77777--77777--55555--55555-| 4x
A|--55555--44444--33333--55555-|
E|-----------------------33333-|

Verse 1 Lyrics:

Nakaupo s'ya sa isang madilim na sulok
Ewan ko ba kung bakit sa libu-libong babaing nandoon
Wala pang isang minuto
Nahulog na ang loob ko sa 'yo

Guitar 1 and Guitar 2

e|-----------------------------|
B|-----------------------------|
G|--77777--77777--55555--------|
D|--77777--77777--55555--55555-|  1x
A|--55555--44444--33333--55555-|
E|-----------------------33333-|

Verse 2 :

Guitar 1 and Guitar 2

e|-----------------------------|
B|-----------------------------|
G|--77777--77777--55555--------|
D|--77777--77777--55555--55555-|  4x
A|--55555--44444--33333--55555-|
E|-----------------------33333-|

Verse 2 Lyrics:

Gusto ko sanang marinig ang tinig mo
Umasa na rin na sana'y mahawakan ko ang palad mo
Gusto ko sanang lumapit
Kung di lang sa lalaking kayakap mo, ho o-o-oh.

Chorus :

Guitar 1 and Guitar 2

e|--------------------------------------------------------------------------------|
B|--------------------------------------------------------------------------------|
G|------------77777777------------77777777------------77777777--------------------|
D|--77777777--77777777--77777777--77777777--77777777--77777777-77777777--55555555-|
A|--77777777--55555555--77777777--55555555--77777777--55555555-77777777--55555555-|
E|--55555555------------55555555------------55555555-----------55555555--33333333-|

Cont'd

-----------------------------|
-----------------------------|
--77777--77777--55555--------|
--77777--77777--55555--55555-|  4x
--55555--44444--33333--55555-|
-----------------------33333-|

Guitar 2

papasok e2 pagktpos ng G chord...

e|------------------------------------------------|
B|------------------------------------------------|
G|--7777-9h11--7777-9h11--7777-9-11-/12-11-9-11-9-|
D|------------------------------------------------| 4x
A|------------------------------------------------|
E|------------------------------------------------|

Chorus Lyrics :

Dalhin mo ako sa iyong palasyo
Maglakad tayo sa hardin ng yong kaharian
Wala man akong pag-aari
Pangako kong habangbuhay kitang pagsisilbihan
O aking prinsesa ha-a-ah, prinsesa
Prinsesa, prinsesa.

Adlib :

Guitar 1

e|-----------------------------|
B|-----------------------------|
G|--77777--77777--55555--------|
D|--77777--77777--55555--55555-|  2x
A|--55555--44444--33333--55555-|
E|-----------------------33333-|

Guitar 2

Note: hndi yan 1-2...12 yan..

e|--10/12-12121212121212--14141414141414--16161616161616--17171717171717-|
B|--10/12-12121212121212--14141414141414--16161616161616--17171717171717-|
G|-----------------------------------------------------------------------|
D|-----------------------------------------------------------------------| 2x
A|-----------------------------------------------------------------------|
E|-----------------------------------------------------------------------|

Verse 3:

Guitar 1 and Guitar 2

e|-----------------------------|
B|-----------------------------|
G|--77777--77777--55555--------|
D|--77777--77777--55555--55555-|  4x
A|--55555--44444--33333--55555-|
E|-----------------------33333-|

Verse 3 Lyrics:

Di ako makatulog
Naisip ko ang ningning ng yong mata
Nasa isip kita buong umaga buong magdamag
Sana'y parati kang tanaw
O ang sakit isipin ito'y isang panaginip
Panaginip lang.

Chorus :

Guitar 1 and Guitar 2

e|----------------------------------------------------------------------------------------------------------------------------------|
B|----------------------------------------------------------------------------------------------------------------------------------|
G|-------------------7-7-7-7-7-7-7-7-------------------7-7-7-7-7-7-7-7-------------------7-7-7-7-7-7-7-7----------------------------|
D|--7-7-7-7-7-7-7-7--7-7-7-7-7-7-7-7--7-7-7-7-7-7-7-7--7-7-7-7-7-7-7-7--7-7-7-7-7-7-7-7--7-7-7-7-7-7-7-7--7-7-7-7-7-7-7-7--55555555-|
A|--7-7-7-7-7-7-7-7--5-5-5-5-5-5-5-5--7-7-7-7-7-7-7-7--5-5-5-5-5-5-5-5--7-7-7-7-7-7-7-7--5-5-5-5-5-5-5-5--7-7-7-7-7-7-7-7--55555555-|
E|--5-5-5-5-5-5-5-5-------------------5-5-5-5-5-5-5-5-------------------5-5-5-5-5-5-5-5-------------------5-5-5-5-5-5-5-5--33333333-|

Cont'd

-----------------------------|
-----------------------------|
--77777--77777--55555--------|
--77777--77777--55555--55555-|  4x
--55555--44444--33333--55555-|
-----------------------33333-|

Guitar 2

papasok e2 pagktpos ng G chord...

e|------------------------------------------------|
B|------------------------------------------------|
G|--7777-9h11--7777-9h11--7777-9-11-/12-11-9-11-9-|
D|------------------------------------------------| 4x
A|------------------------------------------------|
E|------------------------------------------------|

Chorus Lyrics :

Dalhin mo ako sa iyong palasyo
Maglakad tayo sa hardin ng yong kaharian
Wala man akong pag-aari
Pangako kong habangbuhay kitang pagsisilbihan
O aking prinsesa ha-a-ah, prinsesa
Prinsesa, prinsesa.

Adlib :


Guitar 1

e|-----------------------------|
B|-----------------------------|
G|--77777--77777--55555--------|
D|--77777--77777--55555--55555-|  4x
A|--55555--44444--33333--55555-|
E|-----------------------33333-|

Guitar 2

Note: hndi yan 1-2...12 yan..

e|--10/12-12121212121212--14141414141414--16161616161616--17171717171717-|
B|--10/12-12121212121212--14141414141414--16161616161616--17171717171717-|
G|-----------------------------------------------------------------------|
D|-----------------------------------------------------------------------| 4x
A|-----------------------------------------------------------------------|
E|-----------------------------------------------------------------------|

Chorus :


Guitar 1 and Guitar 2

e|----------------------------------------------------------------------------------------------------------------------------------|
B|----------------------------------------------------------------------------------------------------------------------------------|
G|-------------------7-7-7-7-7-7-7-7-------------------7-7-7-7-7-7-7-7-------------------7-7-7-7-7-7-7-7----------------------------|
D|--7-7-7-7-7-7-7-7--7-7-7-7-7-7-7-7--7-7-7-7-7-7-7-7--7-7-7-7-7-7-7-7--7-7-7-7-7-7-7-7--7-7-7-7-7-7-7-7--7-7-7-7-7-7-7-7--55555555-|
A|--7-7-7-7-7-7-7-7--5-5-5-5-5-5-5-5--7-7-7-7-7-7-7-7--5-5-5-5-5-5-5-5--7-7-7-7-7-7-7-7--5-5-5-5-5-5-5-5--7-7-7-7-7-7-7-7--55555555-|
E|--5-5-5-5-5-5-5-5-------------------5-5-5-5-5-5-5-5-------------------5-5-5-5-5-5-5-5-------------------5-5-5-5-5-5-5-5--33333333-|

Cont'd

-----------------------------|
-----------------------------|
--77777--77777--55555--------|
--77777--77777--55555--55555-|  7x
--55555--44444--33333--55555-|
-----------------------33333-|

Guitar 2

papasok e2 pagktpos ng G chord...

e|------------------------------------------------|
B|------------------------------------------------|
G|--7777-9h11--7777-9h11--7777-9-11-/12-11-9-11-9-|
D|------------------------------------------------| 7x
A|------------------------------------------------|
E|------------------------------------------------|

Chorus Lyrics :

Dalhin mo ako sa iyong palasyo
Maglakad tayo sa hardin ng yong kaharian
Wala man akong pag-aari
Pangako kong habangbuhay kitang pagsisilbihan
O aking prinsesa ha-a-ah, prinsesa
Prinsesa, prinsesa.
Prinsesa, prinsesa
Prinsesa, a-ha-ah... (Fade)

| /  slide
| h  hammer-on

                                     ~End~
            
Submit corrections

↑ Back to top | Teeth Tabs for Prinsesa. Lyrics for acoustic guitar and electric guitar. Tablatures and chords are parodies/interpretations of the original songs. You may use it for private study, scholarship, research or language learning purposes only