» » »

Taproot, Dreams Bass tabs (ver.2)

Artists:  A B C D E F G H I J K L M N O P Q R S T U V W X Y Z # 

Dreams Bass tabs (ver.2)

Taproot Tabs
 Rating:
4/5 (4 votes)
Dreams lessons Tabs too difficult? Try these video lessons and learn fast
1
                
DREAMS (Bassline)
As recorded by Taproot
(From the 2002 Album WELCOME)

	

Music by Taproot
Arranged by Taproot

Gtr I (D G C F) - 'Phil Lipscomb'

 Intro
  Q=72
 4/4
  Gtr I
  Wx2            E. S S S S Q  +S  S S S S  4x
|------------||-----------0-----------------||
|------------||o---------------------------o||
|------------||o------0h1---2--(2)---------o||
|------------||--0--0--------------3-3-3-2--||


 Verse 1&2
  $
  E S S S E S S S S S S S S S   S S S S S E S S S S S S S S S
|-----------------------------|-------------------------------|
|-----------------------------|-------------------------------|
|---1-----1---1h2-2-----------|-----1-----1---1h2-2-----------|
|-----0-0---0-------0-3-3-3-2-|-0-----0-0---0-------0-3-3-3-2-|


  S S S S S E S S S S S S S S S   S S S S S E S S S S S S S S S
|-------------------------------|-------------------------------||
|-----8-----8---8h9-9-----------|-------------------------------||
|-------------------------------|-----1-----1---1h2-2-----------||
|-0-----0-0---0-------0-3-3-3-2-|-0-0---0-0---0-------0-3-3-3-2-||


   Pre-Chorus                    Chorus
    E. S S S S Q  +S  S S S S  4x H    H      H    S S Q  E
||-----------0-----------------||-----------|----------------|
||o---------------------------o||-----------|----------------|
||o------0h1---2--(2)---------o||-----------|----------------|
||--0--0--------------3-3-3-2--||-0----4----|-3------0-3--0--|


    S S S S S S S S S S S S S S S S   S S S S S S S S S S S S S S S S
||----------------------------------|-----------------------------------||
||o---------------------------------|----------------------------------o||
||o---------------------------------|----------------------------------o||
||--0-0-0-0-0-0-0-0-4-4-4-4-4-4-4-4-|-3-3-3-3-3-3-3-3-3-3-3-3-3-3-3-3---||


                                                              D.S.
  S S S S S S S S S S S S S S S S   S S S S S S S S S S S S S S S S
|---------------------------------|---------------------------------||
|---------------------------------|---------------------------------||
|---------------------------------|---------------------------------||
|-0-0-0-0-0-0-0-0-4-4-4-4-4-4-4-4-|-3-3-3-3-3-3-3-3-3-3-3-3-3-3-3-2-||


 Breakdown
  |-3-|                      |-3-|                        |-3-|
  E E E H.        S S E H    E E E   H    S S E Q    H    E E E E S S
|---------------|------------------|---------------|------------------|
|---------------|------------------|---------------|------------------|
|---------------|------------------|---------------|------------------|
|-2-1-0---------|-2-1-0------2-1-0-|------2-1-0----|------2-1-0---0-0-|


                                          |-3-|
  S S S S S S S S S S E S S S S   S S S S E E E S S S S S S S S
|-------------------------------|-------------------------------|
|-------------------------------|-------------------------------|
|-------------------------------|-------------------------------|
|-0---0-0-0---0-0-2-1-0-0---0-0-|-0---0-0-2-3-1-0---0-0-0---0-0-|


 5/8         3/4
  Q  Q  E     E.    E.    E     S S E  9x
|---------||---------------------------||
|---------||o-2b2.5r2b2.5r2b2.5r======o||
|---------||o-------------------------o||
|-2--1--0-||--------------------2-1-0--||


 Chorus
 4/4
  H    H      H    S S Q  E     S S S S S S S S S S S S S S S S
|-----------|---------------||----------------------------------|
|-----------|---------------||o---------------------------------|
|-----------|---------------||o---------------------------------|
|-0----4----|-3------0-3--0-||--0-0-0-0-0-0-0-0-4-4-4-4-4-4-4-4-|


  1.                                 2.
  S S S S S S S S S S S S S S S S     S S S S S S S S S S  S  S S  S  S  S
|----------------------------------||--------------------------------------|
|---------------------------------o||--------------------------------------|
|---------------------------------o||--------------------------------------|
|-3-3-3-3-3-3-3-3-3-3-3-3-3-3-3-3--||-3-3-3-3-3-3-3-3-3-3S15-15-3S15-15-15-|


  S S S S S S S S S S S S S S S S   S S S S S S S S S S S S S S S S
|---------------------------------|---------------------------------||
|---------------------------------|---------------------------------||
|---------------------------------|---------------------------------||
|-0-0-0-0-0-0-0-0-4-4-4-4-4-4-4-4-|-3-3-3-3-3-3-3-3-3-3-3-3-3-3-3-3-||


 Outro
  S S S S S S S S S S S S S S S S   S S S S S S S S S S S S S S E
|---------------------------------|--------------------------------|
|---------------------------------|--------------------------------|
|---------------------------------|--------------------------------|
|-0-0-0-0-0-0-0-0-4-4-4-4-4-4-4-4-|-3-3-3-3-3-3-3-3-3-3-3-3-2-1-0--|


 3/4
  E. E. E S S E     E.    E.    E     S S E  4x
|---------------||---------------------------||
|---------------||o-2b2.5r2b2.5r2b2.5r======o||
|---------------||o-------------------------o||
|-0--0--0-2-1-0-||--------------------2-1-0--||



Duration Legend
---------------
W - whole; H - half; Q - quarter; E - 8th; S - 16th; T - 32nd; X - 64th; a - acciaccatura
+ - note tied to previous; . - note dotted; .. - note double dotted
Uncapitalized letters represent notes that are staccato (1/2 duration)
Irregular groupings are notated above the duration line
Duration letters will always appear directly above the note/fret number it represents the
duration for.  Duration letters with no fret number below them represent rests.  Multi-
bar rests are notated in the form Wxn, where n is the number of bars to rest for.  Low
melody durations appear below the staff

Tablature Legend
----------------
 h   - hammer-on
 p   - pull-off
 b   - bend
 pb  - pre-bend
 r   - bend release (if no number after the r, then release immediately)
 /\  - slide into or out of (from/to "nowhere")
 s   - legato slide
 S   - shift slide
 - natural harmonic
[n]  - artificial harmonic
n(n) - tapped harmonic
 ~   - vibrato
 tr  - trill
 T   - tap
 TP  - trem. picking
 PM  - palm muting
\n/  - tremolo bar dip; n = amount to dip
 \n  - tremolo bar down
 n/  - tremolo bar up
/n\  - tremolo bar inverted dip
 =   - hold bend; also acts as connecting device for hammers/pulls
 <> - volume swell (louder/softer)
 x   - on rhythm slash represents muted slash
 o   - on rhythm slash represents single note slash

Misc Legend
-----------
 |  - bar
||  - double bar
||o - repeat start
o|| - repeat end
*|  - double bar (ending)
 :  - bar (freetime)
 $  - Segno
 &  - Coda
Tempo markers -  = BPM(8/16=s8/s16), where s8 = swing 8ths, s16 = swing 16ths
            
Submit corrections

comments powered by Disqus
↑ Back to top | Taproot Bass for Dreams. Lyrics for acoustic guitar and electric guitar. 1 Tablatures and chords are parodies/interpretations of the original songs. You may use it for private study, scholarship, research or language learning purposes only