>
 >
Dreams

Dreams Guitar Tabs

Taproot - Dreams chords, tabs, tablatures, lyrics

Guitar lessons | Add/correct | Request | Top 50 tabs Artists:  A B C D E F G H I J K L M N O P Q R S T U V W X Y Z 0-9

Dreams Guitar Tabs – Taproot

CD, Sheet music, Poster

Do you like Dreams? Share with your friends now
Bass TabsBass Tabs v2ChordsTabsTabs v2Ukulele

DREAMS
As recorded by Taproot
(From the 2002 Album WELCOME)

        

Music by Taproot
Arranged by Taproot

Gtr I (D G C F A D) - 'Mike DeWolf'
Gtr II (D G C F A D) - 'Stephen Richards (Dirty)'
Gtr III (D G C F A D) - 'Stephen Richards (Clean)'

   Intro
    Q=72
   4/4
    Gtr I
    E  E    S E    S S S  E  S  S  S S
||--------------------------------------||-|
||o------------------------------------o||-|
||--------------------------------------||-|
||-----8------8------8h9--9-------------||-|
||o-------------------------10-10-10-9-o||-|
||--0-------0------0--------------------||-|
|
|   Gtr II
|   E.   E.     E.     E.    S  S  S S
||--------------------------------------||-|
||o------------------------------------o||-|
||--------------------------------------||-|
||--------------------------------------||-|
||o------------------------------------o||-|
||--0----0------0------0-----3--3--3-2--||-|


                                                                    G5    F#5
                                                                    PM----|
    E  E    S E    S S S  E  S  S  S  S  3x E  E    S E    S S S  E S S S S
||---------------------------------------||---------------------------------||
||o-------------------------------------o||---------------------------------||
||---------------------------------------||---------------------------------||
||-----8------8------8h9--9--------------||----8------8------8h9--9-5-5-5-4-||
||o-------------------------10-10-10--9-o||-------------------------5-5-5-4-||
||--0-------0------0---------------------||-0-------0------0--------3-3-3-2-||
|
|                                                                   PM----|
|   E.   E.     E.     E.    S  S  S  S  3x E.   E.     E.     E.   S S S S
||---------------------------------------||---------------------------------||
||o-------------------------12-12-12-11-o||---------------------------------||
||---------------------------------------||---------------------------------||
||---------------------------9--9--9--8--||-------------------------5-5-5-4-||
||o-------------------------10-10-10--9-o||-------------------------5-5-5-4-||
||--0----0------0------0-----------------||-0----0------0------0----3-3-3-2-||


 Verse 1&2
  $
                    Fb5
                    PM----------------------
  W                 S  S S S H.
|-----------------|------------------------|
|-----------------|------------------------|
|-----------------|------------------------|
|-----------------|-2--2-2-2---------------|
|-----------------|-2--2-2-2---------------|
|-----------------|-0--0-0-0---------------|
|
|         PM--------------------------------
| H.      S S S S   H.             S S S S
|-----------------|------------------------|
|-----------------|------------------------|
|-----------------|------------------------|
|---------5-5-5-4-|----------------5-5-5-4-|
|---------5-5-5-4-|----------------5-5-5-4-|
|---------3-3-3-2-|----------------3-3-3-2-|


 ---------------------------------|
  S  S S S H.              S  S S S H     S  S  S S
|------------------------|----------------------------||
|------------------------|----------------------------||
|------------------------|----------------------------||
|-2--2-2-2---------------|-2--2-2-2-------------------||
|-2--2-2-2---------------|-2--2-2-2------10-10-10-9---||
|-0--0-0-0---------------|-0--0-0-0-------------------||
|
|--------------------------|
| H.             S S S S   H.             S  S  S S
|------------------------|----------------------------||
|------------------------|----------------------------||
|------------------------|----------------------------||
|----------------5-5-5-4-|----------------------------||
|----------------5-5-5-4-|---------------10-10-10-9---||
|----------------3-3-3-2-|----------------------------||


   Pre-Chorus
                                                                  ~
    E  E    S E    S S S  E  S  S  S  S  3x E  E    S E    S S S  Q   +E
||---------------------------------------||-------------------------------||
||o-------------------------------------o||-------------------------------||
||---------------------------------------||-------------------------------||
||-----8------8------8h9--9--------------||----8------8------8h9--9---(9)-||
||o-------------------------10-10-10--9-o||-------------------------------||
||--0-------0------0---------------------||-0-------0------0--------------||
|
|   E.   E.     E.     E.    S  S  S  S  3x E.   E.     E.     E.   Q
||---------------------------------------||-------------------------------||
||o-------------------------12-12-12-11-o||-------------------------------||
||---------------------------------------||-------------------------------||
||---------------------------9--9--9--8--||-------------------------------||
||o-------------------------10-10-10--9-o||-------------------------------||
||--0----0------0------0-----------------||-0----0------0------0----------||


 Chorus
  Fb5                        Ab5
   PM----------------------------------------------------
   S  S   S  S  S   S  S  S   S  S   S  S  S   S  S  S
|-------------------------------------------------------|
|-------------------------------------------------------|
|-------------------------------------------------------|
|--2-(2)-(2)-2-(2)-(2)-2-(2)--6-(6)-(6)-6-(6)-(6)-6-(6)-|
|--2-(2)-(2)-2-(2)-(2)-2-(2)--6-(6)-(6)-6-(6)-(6)-6-(6)-|
|--0-(0)-(0)-0-(0)-(0)-0-(0)--4-(4)-(4)-4-(4)-(4)-4-(4)-|
|
| Gtr III
|  H                          H
|-!4-------------------------!8-------------------------|
|-------------------------------------------------------|
|-!1-------------------------!5-------------------------|
|-!2-------------------------!6-------------------------|
|-------------------------------------------------------|
|-------------------------------------------------------|


  G5
 --------------------------------------------------|
   S  S   S  S  S   S  S  S  S  S   S  S  S   S  S  S
|------------------------------------------------------
|------------------------------------------------------
|------------------------------------------------------
|--5-(5)-(5)-5-(5)-(5)-5-(5)-5-(5)-(5)-5-(5)-(5)-5-(5)-
|--5-(5)-(5)-5-(5)-(5)-5-(5)-5-(5)-(5)-5-(5)-(5)-5-(5)-
|--3-(3)-(3)-3-(3)-(3)-3-(3)-3-(3)-(3)-3-(3)-(3)-3-(3)-
|
|  W
|-!7---------------------------------------------------
|------------------------------------------------------
|-!4---------------------------------------------------
|-!5---------------------------------------------------
|------------------------------------------------------
|------------------------------------------------------


  Ab
   S  S  S  S  S  S  S  S  S  S  S  S  S  S  S  S
|-------------------------------------------------|
|-------------------------------------------------|
|-13-13-13-13-13-13-13-13-13-13-13-13-13-13-13-13-|
|-------------------------------------------------|
|-11-11-11-11-11-11-11-11-11-11-11-11-11-11-11-11-|
|-------------------------------------------------|
|
| Gtr II
|  S  S  S  S  S  S  S  S  S  S  S  S  S  S  S  S
|-------------------------------------------------|
|-------------------------------------------------|
|-------------------------------------------------|
|--2--2--2--2--2--2--2--2--6--6--6--6--6--6--6--6-|
|--2--2--2--2--2--2--2--2--6--6--6--6--6--6--6--6-|
|--0--0--0--0--0--0--0--0--4--4--4--4--4--4--4--4-|


       G
     S  S  S  S  S  S  S  S  S  S  S  S  S  S  S  S
||--------------------------------------------------|
||o-------------------------------------------------|
||--13S12-12-12-12-12-12-12-12-12-12-12-12-12-12-12-|
||--------------------------------------------------|
||o-11S10-10-10-10-10-10-10-10-10-10-10-10-10-10-10-|
||--------------------------------------------------|
|
|    S  S  S  S  S  S  S  S  S  S  S  S  S  S  S  S
||--------------------------------------------------|
||o--------------------------------------0--0--0--0-|
||---------------0--0--0--0--0--0--0--0--0--0--0--0-|
||---5--5--5--5--5--5--5--5--5--5--5--5--5--5--5--5-|
||o--5--5--5--5--5--5--5--5--5--5--5--5--5--5--5--5-|
||---3--3--3--3--3--3--3--3--3--3--3--3--3--3--3--3-|


     Ab
   S  S  S  S  S  S  S  S  S  S  S  S  S  S  S  S
|--------------------------------------------------||
|-------------------------------------------------o||
|-12S13-13-13-13-13-13-13-13-13-13-13-13-13-13-13--||
|--------------------------------------------------||
|-10S11-11-11-11-11-11-11-11-11-11-11-11-11-11-11-o||
|--------------------------------------------------||
|
|  S  S  S  S  S  S  S  S  S  S  S  S  S  S  S  S
|--------------------------------------------------||
|-------------------------------------------------o||
|--------------------------------------------------||
|--2--2--2--2--2--2--2--2--6--6--6--6--6--6--6--6--||
|--2--2--2--2--2--2--2--2--6--6--6--6--6--6--6--6-o||
|--0--0--0--0--0--0--0--0--4--4--4--4--4--4--4--4--||


                                        D.S.
     G                                G5    F#5
                                      PM----|
   S  S  S  S  S  S  S  S  S  S  S  S S S S S
|---------------------------------------------||
|---------------------------------------------||
|-13S12-12-12-12-12-12-12-12-12-12-12---------||
|-------------------------------------5-5-5-4-||
|-11S10-10-10-10-10-10-10-10-10-10-10-5-5-5-4-||
|-------------------------------------3-3-3-2-||
|
|  S  S  S  S  S  S  S  S  S  S  S  S S S S S
|---------------------------------------------||
|-------------------------------------0-0-0---||
|--------------0--0--0--0--0--0--0--0-0-0-0---||
|--5--5--5--5--5--5--5--5--5--5--5--5-5-5-5-4-||
|--5--5--5--5--5--5--5--5--5--5--5--5-5-5-5-4-||
|--3--3--3--3--3--3--3--3--3--3--3--3-3-3-3-2-||


 Breakdown
  PM--|           PM--|                   PM--|
  |-3-|                      |-3-|
  E E E H.        S S E H    E E E   H    S S E Q
|---------------|------------------|---------------|
|---------------|------------------|---------------|
|---------------|------------------|---------------|
|-4-3-2---------|-4-3-2------------|------4-3-2----|
|-4-3-2---------|-4-3-2------2S1S5-|------4-3-2----|
|-2-1-0---------|-2-1-0------------|------2-1-0----|
|
| PM--------------------------------------------|
| |-3-|                      |-3-|
| E E E H.        S S E H    E E E   H    S S E Q
|---------------|------------------|---------------|
|---------------|------------------|---------------|
|---------------|------------------|---------------|
|-4-3-2---------|-4-3-2------4-3-2-|------4-3-2----|
|-4-3-2---------|-4-3-2------4-3-2-|------4-3-2----|
|-2-1-0---------|-2-1-0------2-1-0-|------2-1-0----|


       F#F5Fb5         F#F5Fb5
       PM------------------|
       |-3-|                         |-3-|
  H    E E E Q    H    S S E Q    Q  E E E H
|---------------|---------------|---------------|
|---------------|---------------|---------------|
|---------------|---------------|---------------|
|------4-3-2----|------4-3-2----|---------------|
|------4-3-2----|------4-3-2----|----2S1S5------|
|------2-1-0----|------2-1-0----|---------------|
|
|      PM--------------------------------|
|      |-3-|                         |-3-|
| H    E E E Q    H    S S E Q    Q  E E E H
|---------------|---------------|---------------|
|---------------|---------------|---------------|
|---------------|---------------|---------------|
|------4-3-2----|------4-3-2----|----4-3-2------|
|------4-3-2----|------4-3-2----|----4-3-2------|
|------2-1-0----|------2-1-0----|----2-1-0------|


  F#5F5 Fb5
 5/8         3/4
  Q  Q  E      T  T E  T  T E  T  T S S S E  4x
|---------||---------------------------------||
|---------||o-------------------------------o||
|---------||---------------------------------||
|-4--3--2-||---2S=3S2--2S=3S2--2S=3S2--------||
|-4--3--2-||o-------------------------------o||
|-2--1--0-||--------------------------2-1-0--||
|
|              ~~~~~~~~~~~~~~~~~~~
| Q  Q  E      E.      E.      E      S S E  4x
|---------||---------------------------------||
|---------||o-------------------------------o||
|---------||---------------------------------||
|-4--3--2-||--(2)-----(2)-----(2)------------||
|-4--3--2-||o-------------------------------o||
|-2--1--0-||--------------------------2-1-0--||


  Ab
   S   S  S  S   S  S  S   S  S  S  S  S
|----------------------------------------|
|----------------------------------------|
|-13--13-13-13--13-13-13--13-13-13-13-13-|
|----------------------------------------|
|-11--11-11-11--11-11-11--11-11-11-11-11-|
|----------------------------------------|
|
|  ~~~~~~~~~~~~~~~~~~~~~~~
|  E.        E.        E      S  S  E
|----------------------------------------|
|----------------------------------------|
|----------------------------------------|
|-(2)-------(2)-------(2)----------------|
|----------------------------------------|
|-----------------------------2--1--0----|


                   G                                                     Ab
   S   S  S  S   S  S  S   S  S  S  S  S    S   S  S  S   S  S  S   S  S  S  S  S
|----------------------------------------|-----------------------------------------|
|----------------------------------------|-----------------------------------------|
|-13--13-13-13--13S12-12--12-12-12-12-12-|-12--12-12-12--12-12-12--12-12S13-13-13--|
|----------------------------------------|-----------------------------------------|
|-11--11-11-11--11S10-10--10-10-10-10-10-|-10--10-10-10--10-10-10--10-10S11-11-11--|
|----------------------------------------|-----------------------------------------|
|
|  ~~~~~~~~~~~~~~~~~~~~~~~                  ~~~~~~~~~~~~~~~~~~~~~~~
|  E.        E.        E      S  S  E       E.        E.        E      S  S  E
|----------------------------------------|-----------------------------------------|
|----------------------------------------|-----------------------------------------|
|----------------------------------------|-----------------------------------------|
|-(2)-------(2)-------(2)----------------|-(2)-------(2)-------(2)-----------------|
|----------------------------------------|-----------------------------------------|
|-----------------------------2--1--0----|-----------------------------2--1--0-----|


   S   S  S  S   S  S  S   S  S  S  S  S
|----------------------------------------|
|----------------------------------------|
|-13--13-13-13--13-13-13--13-13-13-13-13-|
|----------------------------------------|
|-11--11-11-11--11-11-11--11-11-11-11-11-|
|----------------------------------------|
|
|  ~~~~~~~~~~~~~~~~~~~~~~~
|  E.        E.        E      S  S  E
|----------------------------------------|
|----------------------------------------|
|----------------------------------------|
|-(2)-------(2)-------(2)----------------|
|----------------------------------------|
|-----------------------------2--1--0----|


      Cb
   S   S  S  S   S  S  S   S  S  S  S  S
|----------------------------------------||
|----------------------------------------||
|-13S=16-16-16--16-16-16--16-16-16-16-16-||
|----------------------------------------||
|-11S=14-14-14--14-14-14--14-14-14-14-14-||
|----------------------------------------||
|
|  ~~~~~~~~~~~~~~~~~~~~~~~
|  E.        E.        E      S  S  E
|----------------------------------------||
|----------------------------------------||
|----------------------------------------||
|-(2)-------(2)-------(2)----------------||
|----------------------------------------||
|-----------------------------2--1--0----||


 Chorus
  Fb5                        Ab5
 4/4
   PM----------------------------------------------------
   S  S   S  S  S   S  S  S   S  S   S  S  S   S  S  S
|-------------------------------------------------------|
|-------------------------------------------------------|
|-------------------------------------------------------|
|--2-(2)-(2)-2-(2)-(2)-2-(2)--6-(6)-(6)-6-(6)-(6)-6-(6)-|
|--2-(2)-(2)-2-(2)-(2)-2-(2)--6-(6)-(6)-6-(6)-(6)-6-(6)-|
|--0-(0)-(0)-0-(0)-(0)-0-(0)--4-(4)-(4)-4-(4)-(4)-4-(4)-|
|
| Gtr III
|  H                          H
|-!4-------------------------!8-------------------------|
|-------------------------------------------------------|
|-!1-------------------------!5-------------------------|
|-!2-------------------------!6-------------------------|
|-------------------------------------------------------|
|-------------------------------------------------------|


  G5
 --------------------------------------------------|
   S  S   S  S  S   S  S  S  S  S   S  S  S   S  S  S
|------------------------------------------------------|

|------------------------------------------------------|
|------------------------------------------------------|
|--5-(5)-(5)-5-(5)-(5)-5-(5)-5-(5)-(5)-5-(5)-(5)-5-(5)-|
|--5-(5)-(5)-5-(5)-(5)-5-(5)-5-(5)-(5)-5-(5)-(5)-5-(5)-|
|--3-(3)-(3)-3-(3)-(3)-3-(3)-3-(3)-(3)-3-(3)-(3)-3-(3)-|
|
|  W
|-!7---------------------------------------------------|
|------------------------------------------------------|
|-!4---------------------------------------------------|
|-!5---------------------------------------------------|
|------------------------------------------------------|
|------------------------------------------------------|


    Ab
     S  S  S  S  S  S  S  S  S  S  S  S  S  S  S  S
||--------------------------------------------------|
||o-------------------------------------------------|
||--13-13-13-13-13-13-13-13-13-13-13-13-13-13-13-13-|
||--------------------------------------------------|
||o-11-11-11-11-11-11-11-11-11-11-11-11-11-11-11-11-|
||--------------------------------------------------|
|
|   Gtr II
|    S  S  S  S  S  S  S  S  S  S  S  S  S  S  S  S
||--------------------------------------------------|
||o-------------------------------------------------|
||--------------------------------------------------|
||---2--2--2--2--2--2--2--2--6--6--6--6--6--6--6--6-|
||o--2--2--2--2--2--2--2--2--6--6--6--6--6--6--6--6-|
||---0--0--0--0--0--0--0--0--4--4--4--4--4--4--4--4-|


     G
   S  S  S  S  S  S  S  S  S  S  S  S  S  S  S  S   3x
|---------------------------------------------------||
|--------------------------------------------------o||
|-13S12-12-12-12-12-12-12-12-12-12-12-12-12-12-12---||
|---------------------------------------------------||
|-11S10-10-10-10-10-10-10-10-10-10-10-10-10-10-10--o||
|---------------------------------------------------||
|
|  S  S  S  S  S  S  S  S  S  S  S  S  S  S  S  S   3x
|---------------------------------------------------||
|--------------------------------------0--0--0--0--o||
|--------------0--0--0--0--0--0--0--0--0--0--0--0---||
|--5--5--5--5--5--5--5--5--5--5--5--5--5--5--5--5---||
|--5--5--5--5--5--5--5--5--5--5--5--5--5--5--5--5--o||
|--3--3--3--3--3--3--3--3--3--3--3--3--3--3--3--3---||


 Outro
  Fb5             Ab5               G5      G5              F#F5Fb5
  S S S S S S S S S S S S S S S S   S S S S S S S S S S S S S S E
|---------------------------------|--------------------------------|
|---------------------------------|--------------------------------|
|---------------------------------|---------0-0-0-0-0-0-0-0--------|
|-2-2-2-2-2-2-2-2-6-6-6-6-6-6-6-6-|-5-5-5-5-5-5-5-5-5-5-5-5-4-3-2--|
|-2-2-2-2-2-2-2-2-6-6-6-6-6-6-6-6-|-5-5-5-5-5-5-5-5-5-5-5-5-4-3-2--|
|-0-0-0-0-0-0-0-0-4-4-4-4-4-4-4-4-|-3-3-3-3-3-3-3-3-3-3-3-3-2-1-0--|
|
| S S S S S S S S S S S S S S S S   S S S S S S S S S S S S S S E
|---------------------------------|--------------------------------|
|---------------------------------|--------------------------------|
|---------------------------------|---------0-0-0-0-0-0-0-0--------|
|-2-2-2-2-2-2-2-2-6-6-6-6-6-6-6-6-|-5-5-5-5-5-5-5-5-5-5-5-5-4-3-2--|
|-2-2-2-2-2-2-2-2-6-6-6-6-6-6-6-6-|-5-5-5-5-5-5-5-5-5-5-5-5-4-3-2--|
|-0-0-0-0-0-0-0-0-4-4-4-4-4-4-4-4-|-3-3-3-3-3-3-3-3-3-3-3-3-2-1-0--|


  Ab                                                 G
 3/4
   S   S  S  S   E  S  S  S  S  E    S   S  S  S   S  S  S  S  E    S  S
|---------------------------------|--------------------------------------|
|---------------------------------|--------------------------------------|
|-13--13-13-13--13-13-13-13-13-13-|-13--13-13-13--13S12-12-12-12---12-12-|
|---------------------------------|--------------------------------------|
|-11--11-11-11--11-11-11-11-11-11-|-11--11-11-11--11S10-10-10-10---10-10-|
|---------------------------------|--------------------------------------|
|
|  E.        E.     E     S  S  E    E.        E.        E     S S  E
|---------------------------------|--------------------------------------|
|---------------------------------|--------------------------------------|
|---------------------------------|--------------------------------------|
|---------------------------------|--------------------------------------|
|---------------------------------|--------------------------------------|
|--0---------0------0-----2--1--0-|--0---------0---------0-----2-1--0----|


                              Ab
   S   S  E     S  S  S  S  S  S  S  S
|----------------------------------------|
|----------------------------------------|
|-12--12-12----12-12-12-12-11S13-13-13---|
|----------------------------------------|
|-10--10-10----10-10-10-10-10S11-11-11---|
|----------------------------------------|
|
|  E.       E.        E     S  S  E
|----------------------------------------|
|----------------------------------------|
|----------------------------------------|
|----------------------------------------|
|----------------------------------------|
|--0--------0---------0-----2--1--0------|


                                       Cb                 F#F5Fb5
   E   S  S   S  S  E  S  S  S  S    S  S  S  S   E  S  S S S E
|---------------------------------|-----------------------------*|
|---------------------------------|-----------------------------*|
|-13--13-13--13-13-13-13-13-13-13-|-13S16-16-16--16-16-16-------*|
|---------------------------------|-----------------------4-3-2-*|
|-11--11-11--11-11-11-11-11-11-11-|-11S14-14-14--14-14-14-4-3-2-*|
|---------------------------------|-----------------------2-1-0-*|
|
|  E.     E.        E  S  S  E       E.       E.     E    S S E
|---------------------------------|-----------------------------*|
|---------------------------------|-----------------------------*|
|---------------------------------|-----------------------------*|
|---------------------------------|-----------------------4-3-2-*|
|---------------------------------|-----------------------4-3-2-*|
|--0------0---------0--2--1--0----|--0--------0------0----2-1-0-*|



Duration Legend
---------------
W - whole; H - half; Q - quarter; E - 8th; S - 16th; T - 32nd; X - 64th; a - acciaccatura
+ - note tied to previous; . - note dotted; .. - note double dotted
Uncapitalized letters represent notes that are staccato (1/2 duration)
Irregular groupings are notated above the duration line
Duration letters will always appear directly above the note/fret number it represents the
duration for.  Duration letters with no fret number below them represent rests.  Multi-
bar rests are notated in the form Wxn, where n is the number of bars to rest for.  Low
melody durations appear below the staff

Tablature Legend
----------------
 h   - hammer-on
 p   - pull-off
 b   - bend
 pb  - pre-bend
 r   - bend release (if no number after the r, then release immediately)
 /\  - slide into or out of (from/to "nowhere")
 s   - legato slide
 S   - shift slide
 - natural harmonic
[n]  - artificial harmonic
n(n) - tapped harmonic
 ~   - vibrato
 tr  - trill
 T   - tap
 TP  - trem. picking
 PM  - palm muting
\n/  - tremolo bar dip; n = amount to dip
 \n  - tremolo bar down
 n/  - tremolo bar up
/n\  - tremolo bar inverted dip
 =   - hold bend; also acts as connecting device for hammers/pulls
 <> - volume swell (louder/softer)
 x   - on rhythm slash represents muted slash
 o   - on rhythm slash represents single note slash

Misc Legend
-----------
 |  - bar
||  - double bar
||o - repeat start
o|| - repeat end
*|  - double bar (ending)
 :  - bar (freetime)
 $  - Segno
 &  - Coda
Tempo markers -  = BPM(8/16=s8/s16), where s8 = swing 8ths, s16 = swing 16ths





Comments


Popular Taproot tabs & chords
Nightmare 2 Bass Tabs
Promise Bass Tabs
Believed 2 Tabs
Fault Tabs
Free Tabs
Nightmare Tabs
Poem (Intro) Tabs
Poem 4 Tabs
Poem 9 Tabs
Whats Left Tabs


Song lyrics



↑ Back to top | Tablatures and chords are parodies/interpretations of the original songs. You may use it for private study, scholarship, research or language learning purposes only
© 2014 AZChords.com Contact us | Privacy policy | DMCA | Add/correct tabs | Request tabs | Top 50 tabs