» » »

Taproot, Dreams Tabs (ver.2)

Artists:  A B C D E F G H I J K L M N O P Q R S T U V W X Y Z # 

Dreams Tabs (ver.2)

Taproot Tabs
 Rating:
4/5 (4 votes)
Dreams lessons Tabs too difficult? Try these video lessons and learn fast
1
                Taproot
Song- Dreams
Album-Welcome

Intro/Chorus
E ---------------------------------------------
B ---------------------------------------------
G ---------------------------------------------
D ----6----7----6------------------------------
A --------------------7-----5--------5/7/5/7---
D -0----0----0----0------0---------------------

E --------------------------------------
B --------------------------------2222--
G --------------------------------2222--
D ----6----7----6-----------------0000--
A ---------------------7-----5----------
D -0----0----0----0-------0-------------

Verse
D -xxxx-xxxx-xxxx-xxxx-
A -xxxx-xxxx-xxxx-xxxx-
D -xxxx-xxxx-xxxx-xxxx-

Chorus

Part following chorus (clean)

G -999988887777-
D -999988887777-
A -777766665555-

Distortion (play 3xs)

G -77777777666666665555555555555555
D -77777777666666665555555555555555
A -55555555444444443333333333333333

Verse 2
D -xxxx-xxxx-xxxx-xxxx-
A -xxxx-xxxx-xxxx-xxxx-
D -xxxx-xxxx-xxxx-xxxx-

Chorus


Part following chorus (clean)

G -999988887777-
D -999988887777-
A -777766665555-

Distortion (play 3xs)

G -77777777666666665555555555555555
D -77777777666666665555555555555555
A -55555555444444443333333333333333

Jamming part 

D -765-765-765-765-765-765-765-765
A -765-765-765-765-765-765-765-765
D -765-765-765-765-765-765-765-765

Jamming part 2

D -5555-765/5555-765/5555-765
A -5555-765/5555-765/5555-765
D -5555-765/5555-765/5555-765

Second guitar plays this part

A -555555/777777/888888/101010101010

D -777777/999999/101010101010-1212121212
A -xxxxxxxxxxxxxxxxxxxxxxxxxxxxxxxxxxxx
D -555555/777777/8-8-8-8-8-8—-1010101010

Part following chorus (clean)

G -999988887777-
D -999988887777-
A -777766665555-

Distortion (play 6xs)

G -77777777666666665555555555555555
D -77777777666666665555555555555555
A -55555555444444443333333333333333
            
Submit corrections

comments powered by Disqus
↑ Back to top | Taproot Tabs for Dreams. Lyrics for acoustic guitar and electric guitar. 1 Tablatures and chords are parodies/interpretations of the original songs. You may use it for private study, scholarship, research or language learning purposes only