>
 >
Breakdown 1

Breakdown 1 Guitar Tabs

Tantric - Breakdown 1 chords, tabs, tablatures, lyrics

Guitar lessons | Add/correct | Request | Top 50 tabs Artists:  A B C D E F G H I J K L M N O P Q R S T U V W X Y Z 0-9

Breakdown 1 Guitar Tabs – Tantric

CD, Sheet music, Poster

Do you like Breakdown 1? Share with your friends now
Bass TabsBass Tabs v2Bass Tabs v3Bass Tabs v4Bass Tabs v5ChordsTabsTabs v2Tabs v3Tabs v4
#------------------------------------------------------------------------------##

                                    BREAKDOWN
                             As recorded by Tantric
                          (From the 2001 Album TANTRIC)



        C#5/Ab                 G#5                  E5                   F#5
      x x x 2 3 x          7 7 7 x x x          3 3 3 x x x          5 5 5 x x x

Gtr I (Db Ab Db Gb Bb Eb) - 'Guitar 1'
Gtr II (Db Ab Db Gb Bb Eb) - 'Guitar 2'
Gtr III (Db Ab Db Gb Bb Eb) - 'Guitar 3'
Gtr IV (Db Ab Db Gb Bb Eb) - 'Guitar 4'

 Intro
  Moderate Rock Q=100
 4/4
  Gtr I
  E S S S S S S S S S S S S E   E S S S S S S S S S S S S E
|-----------------------------|-----------------------------|
|-----------------------------|-----------------------------|
|---2p0---4p0---5p0---4p0---2-|---2p0---4p0---2p0---4p0---2-|
|-----------------------------|-----------------------------|
|-0-----0-----0-----0-----0---|-----------------------------|
|-----------------------------|-3-----3-----0-----0-----0---|


  E S S S S S S S S S S S S E    E S S S S S S S S S S S S E
|------------------------------|-----------------------------|
|------------------------------|-----------------------------|
|---2p0---4p0---5p0---7p0---9\-|---2p0---4p0---2p0---4p0---2-|
|------------------------------|-----------------------------|
|-0-----0-----0-----0-----0----|-----------------------------|
|------------------------------|-3-----3-----0-----0-----0---|


    Gtrs I, II
    E S S S S S S S S S S S S E   E S S S S S S S S S S S S E
||------------------------------|-----------------------------|
||o-----------------------------|-----------------------------|
||----2p0---4p0---5p0---4p0---2-|---2p0---4p0---2p0---4p0---2-|
||------------------------------|-----------------------------|
||o-0-----0-----0-----0-----0---|-----------------------------|
||------------------------------|-3-----3-----0-----0-----0---|


  E S S S S S S S S S S S S E    E S S S S S S S S S S S S E
|------------------------------|-----------------------------
|------------------------------|-----------------------------
|---2p0---4p0---5p0---7p0---9\-|---2p0---4p0---2p0---4p0---2-
|------------------------------|-----------------------------
|-0-----0-----0-----0-----0----|-----------------------------
|------------------------------|-3-----3-----0-----0-----0---


  E S S S S S S S S S S S S E   E S S S S S S S S S S S S E
|-----------------------------|-----------------------------|
|-----------------------------|-----------------------------|
|---2p0---4p0---5p0---4p0---2-|---2p0---4p0---2p0---4p0---2-|
|-----------------------------|-----------------------------|
|-0-----0-----0-----0-----0---|-----------------------------|
|-----------------------------|-3-----3-----0-----0-----0---|


  E S S S S S S S S S S S S E    E S S S S S S S S S S S S E
|------------------------------|-----------------------------|
|------------------------------|-----------------------------|
|---2p0---4p0---5p0---7p0---9\-|---2p0---4p0---2p0---4p0---2-|
|------------------------------|-----------------------------|
|-0-----0-----0-----0-----0----|-----------------------------|
|------------------------------|-3-----3-----0-----0-----0---|


 Verse
  E S S S S S S S S S S S S E   E S S S S S S S S S S S S E
|-----------------------------|-----------------------------|
|-----------------------------|-----------------------------|
|---2p0---4p0---5p0---4p0---2-|---2p0---4p0---2p0---4p0---2-|
|-----------------------------|-----------------------------|
|-0-----0-----0-----0-----0---|-----------------------------|
|-----------------------------|-3-----3-----0-----0-----0---|


  E S S S S S S S S S S S S E    E S S S S S S S S S S S S E
|------------------------------|-----------------------------|
|------------------------------|-----------------------------|
|---2p0---4p0---5p0---7p0---9\-|---2p0---4p0---2p0---4p0---2-|
|------------------------------|-----------------------------|
|-0-----0-----0-----0-----0----|-----------------------------|
|------------------------------|-3-----3-----0-----0-----0---|


  E S S S S S S S S S S S S E   E S S S S S S S S S S S S E
|-----------------------------|-----------------------------|
|-----------------------------|-----------------------------|
|---2p0---4p0---5p0---4p0---2-|---2p0---4p0---2p0---4p0---2-|
|-----------------------------|-----------------------------|
|-0-----0-----0-----0-----0---|-----------------------------|
|-----------------------------|-3-----3-----0-----0-----0---|


  E S S S S S S S S S S S S E    E S S S S S S S S S S S S E
|------------------------------|-----------------------------|
|------------------------------|-----------------------------|
|---2p0---4p0---5p0---7p0---9\-|---2p0---4p0---2p0---4p0---2-|
|------------------------------|-----------------------------|
|-0-----0-----0-----0-----0----|-----------------------------|
|------------------------------|-3-----3-----0-----0-----0---|


 Chorus
  $
  Gtr II
  E E E. S E. S S S E   E E S S S S S S S S E E
|---------------------|-------------------------|
|---------------------|-------------------------|
|---------------------|-------------------------|
|-7-7-7--7-3--3-3-3-3-|-5-5-5-5-5-5-5-5-5-5-5-5-|
|-7-7-7--7-3--3-3-3-3-|-5-5-5-5-5-5-5-5-5-5-5-5-|
|-7-7-7--7-3--3-3-3-3-|-5-5-5-5-5-5-5-5-5-5-5-5-|


  E E E. S E. S S S E   E E S S S S S S S S E E
|---------------------|-------------------------|
|---------------------|-------------------------|
|---------------------|-------------------------|
|-7-7-7--7-3--3-3-3-3-|-5-5-5-5-5-5-5-5-5-5-5-5-|
|-7-7-7--7-3--3-3-3-3-|-5-5-5-5-5-5-5-5-5-5-5-5-|
|-7-7-7--7-3--3-3-3-3-|-5-5-5-5-5-5-5-5-5-5-5-5-|


             To Coda
  E E E. S E. S S S E   E. S S S S S S S S S S E S
|---------------------|----------------------------||
|---------------------|----------------------------||
|---------------------|----------------------------||
|-7-7-7--7-3--3-3-3-3-|-5--5-5-5-5-5-5-5-x-5---5---||
|-7-7-7--7-3--3-3-3-3-|-5--5-5-5-5-5-5-5-x-5---5---||
|-7-7-7--7-3--3-3-3-3-|-5--5-5-5-5-5-5-5-x-5---5---||


  1.
             Gtrs I, II
  W          E S S S S S S S S S S S S E
|----------|-----------------------------|
|----------|-----------------------------|
|----------|---2p0---4p0---2p0---4p0---2-|
|----------|-----------------------------|
|----------|-----------------------------|
|----------|-3-----3-----0-----0-----0---|


  E S S S S S S S S S S S S E    E S S S S S S S S S S S S E
|------------------------------|-------------------------------||
|------------------------------|------------------------------o||
|---2p0---4p0---5p0---7p0---9\-|---2p0---4p0---2p0---4p0---2---||
|------------------------------|-------------------------------||
|-0-----0-----0-----0-----0----|------------------------------o||
|------------------------------|-3-----3-----0-----0-----0-----||


 Bridge
  2.
  Gtr IV
  H                S E   S E S S   W
|--------------------------------|----------------|
|------------------------------5-|----------------|
|--------------------7---7-7-7---|----------------|
|--------------------------------|----------------|
|--------------------------------|----------------|
|--------------------------------|----------------|
|
| Gtr III
| S S S S S  S S S S S S S Q       H     Q  E S S
|--------------------------------|----------------|
|--------------------------------|----------------|
|------------5-----5-------------|----------------|
|-5h7---5h7----5h7---5h7---------|----------5-5-5-|
|-----7--------------------------|----------------|
|--------------------------------|----------------|
|
| Gtr I
| Q       H.                       Q  H     Q
|--------------------------------|----------------|
|---------3----------------------|----3-----3-----|
|---------2----------------------|----2-----2-----|
|--------------------------------|----------------|
|--------------------------------|----------------|
|--------------------------------|----------------|


                                   D.S. al Coda
    H                S E   S E S S   W           5x
||---------------------------------|-------------||
||o------------------------------5-|------------o||
||---------------------7---7-7-7---|-------------||
||---------------------------------|-------------||
||o--------------------------------|------------o||
||---------------------------------|-------------||
|
|   S S S S S  S S S S S S S Q       W           5x
||---------------------------------|-------------||
||o--------------------------------|------------o||
||-------------5-----5-------------|-------------||
||--5h7---5h7----5h7---5h7---------|-------------||
||o-----7--------------------------|------------o||
||---------------------------------|-------------||
|
|   Q       H.                       Q  H    Q   5x
||---------------------------------|-------------||
||o---------3----------------------|----3----3--o||
||----------2----------------------|----2----2---||
||---------------------------------|-------------||
||o--------------------------------|------------o||
||---------------------------------|-------------||


                            Outro-Chorus
  &
  Gtr II
  E E E. S S S S S S S E     E E E. S E. S S S E   E E S S S S S S S S E E   3x
|------------------------||----------------------|---------------------------||
|------------------------||o---------------------|--------------------------o||
|------------------------||----------------------|---------------------------||
|-5-5-5--5-3-5-5-5-5-5-5-||--7-7-7--7-3--3-3-3-3-|-5-5-5-5-5-5-5-5-5-5-5-5---||
|-5-5-5--5-3-5-5-5-5-5-5-||o-7-7-7--7-3--3-3-3-3-|-5-5-5-5-5-5-5-5-5-5-5-5--o||
|-5-5-5--5-3-5-5-5-5-5-5-||--7-7-7--7-3--3-3-3-3-|-5-5-5-5-5-5-5-5-5-5-5-5---||


  E E E S S S E S S S S S   E E E S S S S S S S E S
|-------------------------|-------------------------*|
|-------------------------|-------------------------*|
|-------------------------|-------------------------*|
|-7-7-7-7-7-3-3-3-3-3-3-3-|-5-5-5-5-5-5-5-x-5---5---*|
|-7-7-7-7-7-3-3-3-3-3-3-3-|-5-5-5-5-5-5-5-x-5---5---*|
|-7-7-7-7-7-3-3-3-3-3-3-3-|-5-5-5-5-5-5-5-x-5---5---*|


Duration Legend
---------------
W - whole; H - half; Q - quarter; E - 8th; S - 16th; T - 32nd; X - 64th; a - acciaccatura
+ - note tied to previous; . - note dotted; .. - note double dotted
Uncapitalized letters represent notes that are staccato (1/2 duration)
Irregular groupings are notated above the duration line
Duration letters will always appear directly above the note/fret number it represents the
duration for.  Duration letters with no fret number below them represent rests.  Multi-
bar rests are notated in the form Wxn, where n is the number of bars to rest for.  Low
melody durations appear below the staff

Tablature Legend
----------------
 h   - hammer-on
 p   - pull-off
 b   - bend
 pb  - pre-bend
 r   - bend release (if no number after the r, then release immediately)
 /\  - slide into or out of (from/to "nowhere")
 s   - legato slide
 S   - shift slide
  - natural harmonic
[n]  - artificial harmonic
n(n) - tapped harmonic
 ~   - vibrato
 tr  - trill
 T   - tap
 TP  - trem. picking
 PM  - palm muting
\n/  - tremolo bar dip; n = amount to dip
 \n  - tremolo bar down
 n/  - tremolo bar up
/n\  - tremolo bar inverted dip
 =   - hold bend; also acts as connecting device for hammers/pulls
 <>  - volume swell (louder/softer)
 x   - on rhythm slash represents muted slash
 o   - on rhythm slash represents single note slash

Misc Legend
-----------
 |  - bar
||  - double bar
||o - repeat start
o|| - repeat end
*|  - double bar (ending)
 :  - bar (freetime)
 $  - Segno
 &  - Coda
Tempo markers -  = BPM(8/16=s8/s16), where s8 = swing 8ths, s16 = swing 16ths





Comments


Popular Tantric tabs & chords
Mourning Chords
All To Myself Tabs
Astounded Tabs
Foresight Tabs
Frequency Tabs
Hate Me Tabs
I Don't Care 1 Tabs
I'll Stay Here Tabs
Junkyard Tabs
Live Your Life Tabs


Song lyrics



↑ Back to top | Tablatures and chords are parodies/interpretations of the original songs. You may use it for private study, scholarship, research or language learning purposes only
© 2014 AZChords.com Contact us | Privacy policy | DMCA | Add/correct tabs | Request tabs | Top 50 tabs