» » »

Tantric, Break Down Tabs (ver.2)

Artists:  A B C D E F G H I J K L M N O P Q R S T U V W X Y Z # 

Break Down Tabs (ver.2)

Tantric Tabs
 Rating:
4.3/5 (6 votes)
Break Down lessons Tabs too difficult? Try these video lessons and learn fast
                Drop Db tuning: (eb,Bb,Gb,Db,Ab,Db)
this is an easy song, i tabbed absoulutely
no rythum (just so you know)

acoustic intro:
eb|-------------------------------------------------------------
Bb|-------------------------------------------------------------
Gb|----2p0---4p0---5p0---4p0---2~---2p0---4p0---2p0---4p0---2~--
Db|-------------------------------------------------------------
Ab|--0-----0-----0-----0-----0----------------------------------
Db|-------------------------------3-----3-----3-----3-----3-----

 --------------------------------------------------------------|
 --------------------------------------------------------------|
 ----2p0---4p0---5p0---7p0---9p0---2p0---4p0---2p0---4p0---2~--|
 --------------------------------------------------------------|
 --0-----0-----0-----0-----0-----------------------------------|
 --------------------------------3-----3-----3-----3-----3-----|

Heavy Chorus:           Part after Chorus: (processed)
|----------------------|----------------------------------|
|----------------------|----------------------------------|
|----------------------|----------------------------------|
|--2--2----------------|----5/7--5/7--5/7-----------------|
|--0--0--3--3---5---5--|--0----------------3/5--3/5--3/5--|
|--------3--3---5---5--|----------------------------------|

acoustic part towrds the end: (N) = optional note
|---(0)----(0)----(0)--|
|----3------3------3---|
|----2------2------2---|
|----------------------|
|--0-------------------|
|--------3------2------|
this is pretty much it, 
if you need something
feel free to E-mail me
            
Submit corrections

comments powered by Disqus
↑ Back to top | Tantric Tabs for Break Down. Lyrics for acoustic guitar and electric guitar. Tablatures and chords are parodies/interpretations of the original songs. You may use it for private study, scholarship, research or language learning purposes only