» » »

Break Down Bass tabs (ver.3)

Artists:  A B C D E F G H I J K L M N O P Q R S T U V W X Y Z # 

Break Down Bass tabs (ver.3)

Tantric
Rating:
0/5 (0 votes)

Hard to play? Try these video lessons and learn fast.
                This song tuned low to high is C#G#C#F# 0r Db Ab Db Gb

Verse 1
F#-----------------|
C#-----------------|
G#-----------------|
C#--7~~--3~~~--0~~~|

Chorus:(I know the breakdown...)
F#--------------------------|
C#--------------------------|
G#--------------------------|
C#--7-7--3-3-3--5-5-5-5-----|

Pt2 (You can find the reason...)
F#----------------|
C#----------------|
G#-----5/---------|
C#-7-7---3-3-3----|

Verse 2
F#-----------------------------|
C#-----------------------------|
G#--0~~~~----------------------|
C#--------3--0--7~~~--3~~---0~~|

Bridge: (When you find yourself...)
F#--------------------------------|
C#--------------------------------|
G#-00000000-----------------------|
C#----------3333333-5555555-------|

that's All there is to it. Just a general outline. +1 for Jesse's Spector tone!
            
Hard to play? Try these video lessons and learn fast. | Correct




comments powered by Disqus
↑ Back to top | Tablatures and chords are parodies/interpretations of the original songs. You may use it for private study, scholarship, research or language learning purposes only