>
 >
Why Wont You Make Up Your Mind 2

Why Wont You Make Up Your Mind 2 Guitar Tabs

Tame Impala - Why Wont You Make Up Your Mind 2 chords, tabs, tablatures, lyrics

Guitar lessons | Add/correct | Request | Top 50 tabs Artists:  A B C D E F G H I J K L M N O P Q R S T U V W X Y Z 0-9

Why Wont You Make Up Your Mind 2 Guitar Tabs – Tame Impala

CD, Sheet music, Poster

Do you like Why Wont You Make Up Your Mind 2? Share with your friends now
TabsTabs v2Tabs v3
                  Tame Impala - Why Won't You Make Up Your Mind?
                       from their 2010 album Innerspeaker

Intro:
This is the main chord
progression that continuously
plays throughout the entire song:
e|-5--6-----0--1-----|
B|-5--6-----0--1-----|
G|-5--7-----0--2-----| x2
D|-7--8-----2--3-----|
A|-7--8-----2--3-----|
E|-5--6-----0--1-----|

Occasionally hit the higher notes
after playing the chords, like this: 
e|-5--6-6----0--1-1----|
B|-5--6---6--0--1---1--|
G|-5--7------0--2------|
D|-7--8------2--3------|
A|-7--8------2--3------|
E|-5--6------0--1------|
It doesn't have to be exact. You can play whatever note or
part of the chord you want and it will sound good.
There's room for improvisation here.

Then a second guitar comes in and plays the same thing:
Guitar 1 and 2:
e|-5--6-----0--1-----|
B|-5--6-----0--1-----|
G|-5--7-----0--2-----| x4
D|-7--8-----2--3-----|
A|-7--8-----2--3-----|
E|-5--6-----0--1-----|

Synth guitar lead then comes in:
Guitar 3:
e|---------5-----8\5--------------|
B|---5---5-----------6\3-3--5-----|
G|-5---7--------------------------| x2
D|--------------------------------|
A|--------------------------------|
E|--------------------------------|

Guitar 1:
e|-5--6-----0--1-----|
B|-5--6-----0--1-----|
G|-5--7-----0--2-----| x2
D|-7--8-----2--3-----|
A|-7--8-----2--3-----|
E|-5--6-----0--1-----|

Verse 1:
There are slight variations and fills played

"Why won't you make up your mind? Give me a sign,
Why won't you make up your mind? Give me a sign,
Am I wasting my time? Living in my head?
You'll be sorry when I make up mine instead"

Synth guitar:
e|---------5-----8\5--------------|---------5-----8\5----------------------|
B|---5---5-----------6\3-3--5-----|---5---5-----------6\3-3--5--5-6-5\3-3--|
G|-5---7--------------------------|-5---7----------------------------------|
D|--------------------------------|----------------------------------------|
A|--------------------------------|----------------------------------------|
E|--------------------------------|----------------------------------------|

e|---------5-----8\5--------------|---------5-----8\5------------------|
B|---5---5-----------6\3-3--5-----|---5---5-----------6\3-3--5--6\3-1--|
G|-5---7--------------------------|-5---7------------------------------|
D|--------------------------------|------------------------------------|
A|--------------------------------|------------------------------------|
E|--------------------------------|------------------------------------|

These chords are played behind the synth riff in the verses:
Guitar 1:
e|-5--6-----0--1-----|
B|-5--6-----0--1-----|
G|-5--7-----0--2-----| x4
D|-7--8-----2--3-----|
A|-7--8-----2--3-----|
E|-5--6-----0--1-----|

Fuzzy riff played between the verses:
Guitar 2:
e|------------------------------------------------|
B|------------------------------------------------|
G|------------------------------------------------| x2
D|-2b2.5--0----0-3--5/7-7--2b2.5--3--------7\5-5--|
A|-----------1------------------------0-3---------|
E|----------------------------------1-------------|
The bends are quarter step bends, which is basically bending to halfway between the
two notes, which are E and F in this instance. It's used a lot in blues playing
(listen to the main riff to Spoonful by Cream to get a good example). The bend is
only slight and doesn't have to be exact, so don't over-think it.

A second guitar comes in and harmonises the riff:
Guitar 2:
e|------------------------------------------------|
B|------------------------------------------------|
G|------------------------------------------------| x2
D|-2b2.5--0----0-3--5/7-7--2b2.5--3--------7\5-5--|
A|-----------1------------------------0-3---------|
E|----------------------------------1-------------|

Guitar 3:
e|---------------------------------------------------------|
B|---------------------------------------------------------|
G|-----------7-9-10--12/14-14--------------------14\12-12--| x2
D|-9b9.5--7--------------------9b9.5--10---7-10------------|
A|---------------------------------------8-----------------|
E|---------------------------------------------------------|

If you want to play both the normal and harmonised parts
together, then here they are combined. It's a bit tricky,
but here it is nonetheless:
e|---------------------------------------------------------|
B|-------------5-------------------------------------------|
G|-----------7---10--12/14-14--------------------14\12-12--| x2
D|-9b9.5--7--------------------9b9.5--10-3-7-10------------|
A|-7b7.5--5----5--8--10/12-12--7b7.5---8---------12\10-10--|
E|-----------6---------------------------1-5--8------------|

These chords keep playing very faintly in the background:
Guitar 1:
e|-5--6-----0--1-----|
B|-5--6-----0--1-----|
G|-5--7-----0--2-----| x4
D|-7--8-----2--3-----|
A|-7--8-----2--3-----|
E|-5--6-----0--1-----|

Verse 2:
"Why won't you make up your mind? Give me a sign,
Why won't you make up your mind? Give me a sign"

Synth guitar:
e|---------5-----8\5--------------|
B|---5---5-----------6\3-3--5-----|
G|-5---7--------------------------| x2
D|--------------------------------|
A|--------------------------------|
E|--------------------------------|

Guitar 1:
e|-5--6-----0--1-----|
B|-5--6-----0--1-----|
G|-5--7-----0--2-----| x2
D|-7--8-----2--3-----|
A|-7--8-----2--3-----|
E|-5--6-----0--1-----|

The synth riff stops and the chords play on their own at this bit:
"Am I wasting my time? Living in my head?
You'll be sorry when I make up mine instead"

Guitar 1 and 2:
e|-5--6-----0--1-----|
B|-5--6-----0--1-----|
G|-5--7-----0--2-----| x2
D|-7--8-----2--3-----|
A|-7--8-----2--3-----|
E|-5--6-----0--1-----|

Outro jam:
Synth guitar:
e|---------------------|---------5--8/10-10-10--8\5----------------------|
B|-5---5---5---5---5---|---5---5--------------------6\3-3--5--5-6-5-3-1--|
G|---7---7---7---7---7-|-5---7-------------------------------------------|
D|---------------------|-------------------------------------------------|
A|---------------------|-------------------------------------------------|
E|---------------------|-------------------------------------------------|

e|---------5-----7/8\7-5---------------5--|---------5-7-8-10----------------------|
B|---5---5----------------6\3-3--5-6-8----|---5---5-----------5---5h6-5--3h5-3-1--|
G|-5---7----------------------------------|-5---7---------------------------------|
D|----------------------------------------|---------------------------------------|
A|----------------------------------------|---------------------------------------|
E|----------------------------------------|---------------------------------------|

e|---------5-----8\5--------------|---------5-----8\5--------------|
B|---5---5-----------6\3-3--5-----|---5---5-----------6\3-3--5-----|
G|-5---7--------------------------|-5---7--------------------------|
D|--------------------------------|--------------------------------|
A|--------------------------------|--------------------------------|
E|--------------------------------|--------------------------------|

e|-------------5-8-8\5------------5-6-5------------------|
B|---5---5-6-8---------6\3-3--5-6-------8-6-5-3-5-6-8-6--|
G|-5---7-------------------------------------------------|
D|-------------------------------------------------------|
A|-------------------------------------------------------|
E|-------------------------------------------------------|

Fuzzy guitar:
e|------------------------------------------------|
B|------------------------------------------------|
G|------------------------------------------------| x5
D|-2b2.5--0----0-3--5/7-7--2b2.5--3--------7\5-5--|
A|-----------1------------------------0-3---------|
E|----------------------------------1-------------|

e|------------------------|
B|-13b15--11p10-11p10~~~~~|
G|------------------------|
D|------------------------|
A|------------------------|
E|------------------------|

e|--------------------------------------------------------------------------|
B|--------------------------------------------------------------------------|
G|-/10---9h10-9--7h9-7--5h7-5--3h5-3--2h3-2--0h2-0----5\4/5-/10--9\7-7/9-7--|
D|--------------------------------------------------3-----------------------|
A|--------------------------------------------------------------------------|
E|--------------------------------------------------------------------------|

e|------------------|
B|-10----------10---|
G|------12b14-------|
D|------------------|
A|------------------|
E|------------------|

The main chords are played very faintly in the background again:
Guitar 1:
e|-5--6-----0--1-----|
B|-5--6-----0--1-----|
G|-5--7-----0--2-----| x8
D|-7--8-----2--3-----|
A|-7--8-----2--3-----|
E|-5--6-----0--1-----|

The ending parts of the fuzzy riff and synth riff were deciphered by increasing the
volume as the song fades out. You can't really hear them unless you turn the volume
up, but that's how the song ends, so I thought I'd include them. Those parts actually
sound really, really awesome, and I wish there was an extended version with them
continuing on rather than fading out.

Have fun with it!


************************************

| /   slide up
| \   slide down
| h   hammer-on
| p   pull-off
| ~   vibrato
| +   harmonic
| x   Mute note
| b   Bend
| pb  Pre-bend
| br  Bend release
| pbr Pre-bend release
| brb Bend release bend

************************************





Comments


Popular Tame Impala tabs & chords
Lucidity Bass Tabs
Beverly Laurel Tabs
Desire Be Desire Go 1 Tabs
Island Walking Tabs
Led Zeppelin 1 Tabs
Lucidity Tabs
Music To Walk Home By 1 Tabs
Runway Houses City Clouds Tabs
When The Feelings In The Core Tabs
Why Wont You Make Up Your Mind 1 Tabs


Song lyrics



↑ Back to top | Tablatures and chords are parodies/interpretations of the original songs. You may use it for private study, scholarship, research or language learning purposes only
© 2014 AZChords.com Contact us | Privacy policy | DMCA | Add/correct tabs | Request tabs | Top 50 tabs