>
 >
It Is Not Meant To Be

It Is Not Meant To Be Bass Tabs

Tame Impala - It Is Not Meant To Be chords, tabs, tablatures, lyrics

Guitar lessons | Add/correct | Request | Top 50 tabs Artists:  A B C D E F G H I J K L M N O P Q R S T U V W X Y Z 0-9

It Is Not Meant To Be Bass Tabs – Tame Impala

CD, Sheet music, Poster

Do you like It Is Not Meant To Be? Share with your friends now
Bass TabsTabs




All tabs by Pedro Zappa
-----------------------------------------------------------------------------
-----------------------------------------------------------------------------


1. It Is Not Meant To Be


Intro

G||--------------------|--------------------|
D||--------------------|/17--------12--/17--|
A||-10--------12---13--|--------------------|
E||--------------------|--------------------|
    i    i    i    i     i    i    i    i
G||--------------------|---------------------|
D||-15---14---12---10--|/14---12-------------|
A||--------------------|---------15-13---12--|
E||--------------------|---------------------|
    i    i    i    i     i    i     i    i
G||--------------------|--------------------|
D||--------------------|/17--------10--/17--|
A||-10--------12---13--|--------------------|
E||--------------------|--------------------|
    i    i    i    i     i    i    i    i
G||--------------------|---------------------||  x4
D||-15---14---12---10--|/14---12-------------||
A||--------------------|---------15-13---12--||
E||--------------------|---------------------||
    i    i    i    i     i    i     i    i

(wait)

Verse 1
                       
G||--------------------||  x3
D||-------------12-----||
A||-12-----------------||
E||--------------------||
    i    i    i    i   
G||--------------------||
D||-------------0------||
A||-12-----------------||
E||--------------------||
    i    i    i    i  
G||------------------------||  x2
D||---------------12-------||
A||------------10----12----||
E||-5----10-12----------12-||
    i    i     i     i   
G||-----------------------||  x3
D||--------------12-------||
A||-----------------12----||
E||-5----7-8--10-------12-||
    i    i    i     i   
G||-----------------------|-----------------------|--------------------||
D||--------------12-------|--------------12-------|--------------------||
A||-----------------12----|---------10h12---------|-10-----------------||
E||-5----7-8--10-------12-|-10--------------------|--------------------||
    i    i    i     i       i    i       i    i     i    i    i    i  

Chorus 1

G||---------------------|---------------------|
D||---------------------|---------------------|
A||-8----8----10---10---|-8----8----10---10---|
E||---------------------|---------------------|
    i    i    i    i      i    i    i    i  
G||--------------------|--------------------|
D||--------------------|--------------------|
A||-5----5----7----7---|-8----8----8----8---|
E||--------------------|--------------------|
    i    i    i    i     i    i    i    i 

G||---------------------|---------------------|
D||----------------12---|------10-------------|
A||-8----8----10--------|-8---------10---10---|
E||---------------------|---------------------|
    i    i    i    i      i    i    i    i  
G||---------------------|--------------------|
D||---------------------|--------------------|
A||-8----8----10---10---|-8----7----5----3---|
E||---------------------|--------------------|
    i    i    i    i      i    i    i    i  

G||--------------------|--------------------|
D||--------------------|--------------------|
A||--------------------|--------------------|
E||-1----1----3----3---|-1----1----3----3---|
    i    i    i    i     i    i    i    i  
G||---------------------|----------------------|
D||---------------------|-----------10-----10--|
A||-5----5----7----7-10-|-8----8--------8----8-|
E||---------------------|----------------------|
    i    i    i    i      i    i    i     i  

G||---------------------|----------------------|
D||---------------------|----------------10----|
A||-8----8----10---10---|-8----8----10------10-|
E||---------------------|----------------------|
    i    i    i    i     i    i    i    i  

G||---------------------|--------------------|
D||---------------------|--------------------|
A||-8----8----10---10---|-8----8-------------|
E||---------------------|----------3---------|
    i    i    i    i     i    i    i    i  

Verse 2
     
G||------------------------||  x2
D||---------------12-------||
A||------------10----12----||
E||-5----10-12----------12-||
    i    i     i     i   
G||-----------------------||  x2
D||--------------12-------||
A||-----------------12----||
E||-5----7-8--10-------12-||
    i    i    i     i   
G||--------------------||
D||--------10------9---||
A||--------------------||
E||-5----8-------------||
    i    i    i    i  

G||------------------------||
D||---------------12-------||
A||------------10----12----||
E||-5----10-12----------12-||
    i    i     i     i   
G||-----------------------||
D||--------------12-------||
A||-----------------12----||
E||-5----7-8--10-------12-||
    i    i    i     i   
G||-------------------------------||
D||---------------12--------------||
A||------------------12-----------||
E||---5---7-8-10---------12--10---||
    i    i    i     i   


G||-----------------------|--------------------||
D||--------------12-------|--------------------||
A||-----------------12----|--------------------||
E||-5----7-8--10-------12-|-10-----------------||
    i    i    i     i       i    i    i    i

Chorus 2

G||---------------------|---------------------|
D||---------------------|---------------------|
A||-8----8----10---10---|-8----8----10---10---|
E||---------------------|---------------------|
    i    i    i    i      i    i    i    i  
G||--------------------|--------------------|
D||--------------------|--------------------|
A||-5----5----7----7---|-8----8----8----8---|
E||--------------------|--------------------|
    i    i    i    i     i    i    i    i 

G||---------------------|---------------------|
D||---------------------|---------------------|
A||-8----8----10---10---|-8----8----10---10---|
E||---------------------|---------------------|
    i    i    i    i      i    i    i    i  
G||---------------------|-----------------------|
D||---------------------|-----------------------|
A||-8----8----10---10---|-12---12---10.10---12--|
E||---------------------|-----------------------|
    i    i    i    i      i    i    i       i  

Solo

G||--------------------|--------------------|
D||--------------------|--------------------|
A||--------------------|--------------------|
E||-1----1----3----3---|-1----1----3----3---|
    i    i    i    i     i    i    i    i  
G||---------------------|----------------------|
D||---------------------|-------------10-------|
A||-5----5----7----7-10-|-8----8----8------8---|
E||---------------------|----------------------|
    i    i    i    i      i    i    i     i  
G||---------------------|--------------------|
D||---------------------|--------------------|
A||-8----8----10---10---|-8----8----10--10---|
E||---------------------|--------------------|
    i    i    i    i      i    i    i    i  
G||---------------------|--------------------|
D||---------------------|--------------------|
A||-8----8----10---10---|-8----8----8----8---|
E||---------------------|--------------------|
    i    i    i    i      i    i    i    i  

G||---------------------|---------------------|
D||------10-------------|---------------------|
A||-8---------10---10---|-8----8----10---10---|
E||---------------------|---------------------|
    i    i    i    i      i    i    i    i  
G||---------------------|---------------------|
D||------14-------------|---------------------|
A||-12--------10---10---|-8----8----8----8----|
E||---------------------|---------------------|
    i    i    i    i      i    i    i    i  
G||-----------------------|---------------------||
D||--------------12-------|-14--/17---14\12-----||
A||---------12h14---------|---------------------||
E||-12--------------------|---------------------||
    i    i       i    i     i    i    i     i  

(wait) 

Outro

G||--------------------|--------------------|
D||--------------------|/17--------12--/17--|
A||-10--------12---13--|--------------------|
E||--------------------|--------------------|
    i    i    i    i     i    i    i    i
G||--------------------|---------------------|
D||-15---14---12---10--|/14---12-------------|
A||--------------------|---------15-13---12--|
E||--------------------|---------------------|
    i    i    i    i     i    i     i    i
G||--------------------|--------------------|
D||--------------------|/17--------10--/17--|
A||-10--------12---13--|--------------------|
E||--------------------|--------------------|
    i    i    i    i     i    i    i    i
G||--------------------|---------------------||  x3
D||-15---14---12---10--|/14---12-------------||
A||--------------------|---------15-13---12--||
E||--------------------|---------------------||
    i    i    i    i     i    i     i    i

G||--------------------|--------------------|
D||--------------------|/17--------12--/17--|
A||-10--------12---13--|--------------------|
E||--------------------|--------------------|
    i    i    i    i     i    i    i    i
G||--------------------|---------------------|
D||-15---14---12---10--|/14---12-------------|
A||--------------------|---------15-13---12--|
E||--------------------|---------------------|
    i    i    i    i     i    i     i    i
G||--------------------||
D||--------------------||
A||-10-----------------||
E||--------------------||
    i    i    i    i  


-----------------------------------------------------------------------------
-----------------------------------------------------------------------------





Comments


Popular Tame Impala tabs & chords
Desire Be Desire Go Bass Tabs
Feels Like We Only Go Backwards 2 Bass Tabs
Led Zeppelin Bass Tabs
Mind Mischief Bass Tabs
Jeremys Storm 1 Tabs
Milky Way Spiral Gets A New Arm Tabs
Music To Walk Home By 1 Tabs
She Just Wont Believe Me Tabs
Slide Through My Fingers Tabs
Why Wont You Make Up Your Mind Tabs


Song lyrics



↑ Back to top | Tablatures and chords are parodies/interpretations of the original songs. You may use it for private study, scholarship, research or language learning purposes only
© 2014 AZChords.com Contact us | Privacy policy | DMCA | Add/correct tabs | Request tabs | Top 50 tabs