>
 >
Elephant 1

Elephant 1 Guitar Tabs

Tame Impala - Elephant 1 chords, tabs, tablatures, lyrics

Guitar lessons | Add/correct | Request | Top 50 tabs Artists:  A B C D E F G H I J K L M N O P Q R S T U V W X Y Z 0-9

Elephant 1 Guitar Tabs – Tame Impala

CD, Sheet music, Poster

Do you like Elephant 1? Share with your friends now
Bass TabsBass Tabs v2TabsTabs v2
        -Tame Impala
         -Elephant
           -Lonerism


Standard Tuning

INTRO

|----------------------------------------|
|----------------------------------------|
|-7-77-77-77-77-77-77-77-/-10-10---------|
|-7-77-77-77-77-77-77-77-/-10-10---------|
|-5-55-55-55-55-55-55-55-/-8--8----------|
|----------------------------------------|

VERSE 1

Bet he feels...                                You know
|-----------------------------------------------------|
|-----------------------------------------------------|
|-7-77-77-77-77-77-77-77-77-77-77-77-77-77-77-10-10/--|
|-7-77-77-77-77-77-77-77-77-77-77-77-77-77-77-10-10/--|
|-5-55-55-55-55-55-55-55-55-55-55-55-55-55-55-8--8-/--|
|-----------------------------------------------------|

that you're dreaming...
|-----------------------------------------------|
|-----------------------------------------------|
|-----------------------7-77-77-77-77-77-77-77--|
|-5-55-55-55-55-55-55-5-7-77-77-77-77-77-77-77--|
|-5-55-55-55-55-55-55-5-5-55-55-55-55-55-55-55--|
|-3-33-33-33-33-33-33-3-------------------------|

Too bad...
|------------------------------------------------------|
|------------------------------------------------------|
|------------------10-10-/-7-77-77-77-77-77-77-10-10-/-|
|-7-8-7-6-7-6-5----10-10-/-7-77-77-77-77-77-77-10-10-/-|
|-7-8-7-6-7-6-5----8--8--/-5-55-55-55-55-55-55-8--8--/-|
|-5-6-5-4-5-4-3----------------------------------------|

VERSE 2

And it's not...                              There must
|-----------------------------------------------------|
|-----------------------------------------------------|
|-7-77-77-77-77-77-77-77-77-77-77-77-77-77-77-10-10/--|
|-7-77-77-77-77-77-77-77-77-77-77-77-77-77-77-10-10/--|
|-5-55-55-55-55-55-55-55-55-55-55-55-55-55-55-8--8-/--|
|-----------------------------------------------------|

be something...
|-----------------------------------------------|
|-----------------------------------------------|
|-----------------------7-77-77-77-77-77-77-77--|
|-5-55-55-55-55-55-55-5-7-77-77-77-77-77-77-77--|
|-5-55-55-55-55-55-55-5-5-55-55-55-55-55-55-55--|
|-3-33-33-33-33-33-33-3-------------------------|

He's not...
|------------------------------------------------------|
|------------------------------------------------------|
|------------------10-10-/-7-77-77-77-77-77-77-10-10-/-|
|-7-8-7-6-7-6-5----10-10-/-7-77-77-77-77-77-77-10-10-/-|
|-7-8-7-6-7-6-5----8--8--/-5-55-55-55-55-55-55-8--8--/-|
|-5-6-5-4-5-4-3----------------------------------------|

VERSE 3

He's got...                                   Oh, look
|-----------------------------------------------------|
|-----------------------------------------------------|
|-7-77-77-77-77-77-77-77-77-77-77-77-77-77-77-10-10/--|
|-7-77-77-77-77-77-77-77-77-77-77-77-77-77-77-10-10/--|
|-5-55-55-55-55-55-55-55-55-55-55-55-55-55-55-8--8-/--|
|-----------------------------------------------------|

there he...
|-----------------------------------------------|
|-----------------------------------------------|
|-----------------------7-77-77-77-77-77-77-77--|
|-5-55-55-55-55-55-55-5-7-77-77-77-77-77-77-77--|
|-5-55-55-55-55-55-55-5-5-55-55-55-55-55-55-55--|
|-3-33-33-33-33-33-33-3-------------------------|

                     (Here he comes)
|-----------------------------|
|-----------------------------|
|---------------8-7-----------|
|---------------8-7-----------|
|---------------6-5-----------|
|-8-7-6-5-3-1-0---------------|

SOLO 1 (timing is not shown)

(1:15)
|------------------------------------------|
|------------------------------------------|
|---------9----------9--10-----------10----|
|-9-10-12----9-10-12--------9-10-12--------|
|------------------------------------------|
|------------------------------------------|

|------------------------------------------|
|------------------------------------------|
|---------10-12\---------------------------|
|-9-10-12---------10-9--------10-9---------|
|----------------------10-12-------10-12---|
|------------------------------------------|

(1:26)
|------------------------------------------|
|------------------------------------------|
|------------------------------------------|
|-------9--10-12-10-8----------------------|
|-10h12---------------7-8-10---------0-----|
|-----------------------------0--1h3-------|

|------------------------------------------|
|------------------------------------------|
|-10-9--------10-9----------------10-------|
|------10-12-------10-12--9-10-12-----9-10-|
|------------------------------------------|
|------------------------------------------|

(1:37)
|------------------------------------------|
|------------------------------------------|
|----10-12b----------------8-7-------------|
|-12-----------------------8-7-------------|
|--------------------------6-5-------------|
|------------8-7-6-5-3-1-0-----------------|

(1:46)
|------------------------------------------|
|------------------------------------------|
|------12---------12------------------12---|
|-9-10----9--9-10----9--9-10-12--9-10----10|
|------------------------------------------|
|------------------------------------------|

|------------------------------------------|
|------------------------------------------|
|------12----------------------------------|
|-9-10----10--9-10-12--10-9--------10-9----|
|---------------------------10-12-------10-|
|------------------------------------------|

(1:56)
|------------------------------------------|
|------------------------------------------|
|------------------------------------------|
|---------9--10-12-10-8--------------------|
|12-10h12---------------7-8-10--------0----|
|------------------------------0--1h3------|

|------------------------------------------|
|------------------------------------------|
|-10-9--------10-9---------10-9--------10-9|
|------10-12-------10-12--------10-12------|
|------------------------------------------|
|------------------------------------------|

(2:08)
|------------------------------------------|
|------------------------------------------|
|10-12b----------------8-7-----------------|
|----------------------8-7-----------------|
|----------------------6-5-----------------|
|--------8-7-6-5-3-1-0---------------------|

SOLO 2 (timing not shown)

(2:19)
|------------------------------------------| (they are like slides)
|-8-10-13-8-10-13-8-10-13-8-10-13-8-10-15--|
|------------------------------------------|
|------------------------------------------|
|------------------------------------------|
|------------------------------------------|

|------------------------------------------|
|10-15-13-15-13-15~-17-15-10~-17-15-13~-10-|
|------------------------------------------|
|------------------------------------------|
|------------------------------------------|
|------------------------------------------|

(2:34)
|------------------------------------------|
|13-8-10-13-8-10-13-8-10-13-10-13-15-10~---|
|------------------------------------------|
|------------------------------------------|
|------------------------------------------|
|------------------------------------------|

VERSE 4

(2:46)
|----------------------------------------|
|----------------------------------------|
|-7-77-77-77-77-77-77-77-/-10-10---------|
|-7-77-77-77-77-77-77-77-/-10-10---------|
|-5-55-55-55-55-55-55-55-/-8--8----------|
|----------------------------------------|

He pulled...                                  He talks
|-----------------------------------------------------|
|-----------------------------------------------------|
|-7-77-77-77-77-77-77-77-77-77-77-77-77-77-77-10-10/--|
|-7-77-77-77-77-77-77-77-77-77-77-77-77-77-77-10-10/--|
|-5-55-55-55-55-55-55-55-55-55-55-55-55-55-55-8--8-/--|
|-----------------------------------------------------|

like his...
|-----------------------------------------------|
|-----------------------------------------------|
|-----------------------7-77-77-77-77-77-77-77--|
|-5-55-55-55-55-55-55-5-7-77-77-77-77-77-77-77--|
|-5-55-55-55-55-55-55-5-5-55-55-55-55-55-55-55--|
|-3-33-33-33-33-33-33-3-------------------------|

       Somebody grabbed...                         He won't
|---------------------------------------------------------|
|---------------------------------------------------------|
|-10-/-7-77-77-77-77-77-77-77-77-77-77-77-77-77-77-10-10-/|
|-10-/-7-77-77-77-77-77-77-77-77-77-77-77-77-77-77-10-10-/|
|-8--/-5-55-55-55-55-55-55-55-55-55-55-55-55-55-55-8--8--/|
|---------------------------------------------------------|

remember a...
|-----------------------------------------------|
|-----------------------------------------------|
|-----------------------7-77-77-77-77-77-77-77--|
|-5-55-55-55-55-55-55-5-7-77-77-77-77-77-77-77--|
|-5-55-55-55-55-55-55-5-5-55-55-55-55-55-55-55--|
|-3-33-33-33-33-33-33-3-------------------------|

That's how...   
|-------------------------------------------|
|-------------------------------------------|
|------------------10-10-/-7-77-77-77-77-77-|
|-7-8-7-6-7-6-5----10-10-/-7-77-77-77-77-77-|
|-7-8-7-6-7-6-5----8--8--/-5-55-55-55-55-55-|
|-5-6-5-4-5-4-3-----------------------------|

And that's it! This should give you a rough idea on how to play it!





Comments


Popular Tame Impala tabs & chords
It Is Not Meant To Be Intro Tabs
Its Not Meant To Be Tabs
Lucidity 1 Tabs
Mind Mischief Tabs
Music To Walk Home By 1 Tabs
Runway Houses City Clouds Tabs
Runway Houses City Clouds 2 Tabs
Skeleton Tiger Intro Tabs
Solitude Is Bliss Intro Tabs
Why Wont They Talk To Me Tabs


Song lyrics



↑ Back to top | Tablatures and chords are parodies/interpretations of the original songs. You may use it for private study, scholarship, research or language learning purposes only
© 2014 AZChords.com Contact us | Privacy policy | DMCA | Add/correct tabs | Request tabs | Top 50 tabs