» » »

Talking Heads, Heaven Bass tabs (ver.2)

Artists:  A B C D E F G H I J K L M N O P Q R S T U V W X Y Z # 

Heaven Bass tabs (ver.2)

Talking Heads Tabs
Rating:
5/5 (1 vote)
Heaven lessons Tabs too difficult? Try these video lessons and learn fast
                Talking Heads - Heaven
(tabbed from live version on Stop Making Sense)
Standard tuning

Main Riff
G|-----------------------------------------------------|
D|-----------------------------------------------------|
A|-5-----5------5----5------7-----7------7----7--------|
E|---------5--5--------5--5---------7--7--------7----7-|

G-----------------------------------------------------|
D-7-------7--7-5----5-4----5-----5-4------------------|
A------------------------7------------7--5----5-------|
E-------5---------------------------------------5--5--|


Chorus
G|---------------------------------------------------|
D|-9-----9------9----9--8--7----7------7----7--------|
A|---------9--9-------------------7--7--------7--7---|
E|---------------------------------------------------|

G---------------------------------------------------|
D--------------------------5----5------5----5-------|
A-3----3------3------3--5---------5--5--------5--5--|
E--------3--3---------------------------------------|

all the best

Jude Gold
            
Submit corrections

comments powered by Disqus
↑ Back to top | Talking Heads Bass for Heaven. Lyrics for acoustic guitar and electric guitar. Tablatures and chords are parodies/interpretations of the original songs. You may use it for private study, scholarship, research or language learning purposes only