» » »

Heaven Bass tabs (ver.1)

Artists:  A B C D E F G H I J K L M N O P Q R S T U V W X Y Z # 

Heaven Bass tabs (ver.1)

Talking Heads
Rating:
5/5 (1 vote)

Hard to play? Try these video lessons and learn fast.
                Verse:
G|----------------|----------------|----------------|----------------|
D|0-------0-------|0-------0-----0-|2-------2-------|2-------2-------|
A|----------0---0-|----------0-----|----------2---2-|----------2---2-|
E|----------------|----------------|----------------|----------------|
  ^   ^   ^   ^    ^   ^   ^   ^    ^   ^   ^   ^    ^   ^   ^   ^    
                                                    |I.               
G|----------2---2-|0-------0-------|0-------0-------|----------------|
D|----------------|----------4---2-|----------4---2-|0-------0-------|
A|0-------0-------|----------------|----------------|----------0---0-|
E|----------------|----------------|----------------|----------------|
  ^   ^   ^   ^    ^   ^   ^   ^    ^   ^   ^   ^    ^   ^   ^   ^    
                                                    |II.              
Lead-in to Chorus:                                  |----------------|
                                                    |0-------0-----4-|
                                                    |-----------0----|
                                                    |----------------|
                                                     ^   ^   ^   ^    

Chorus:
G|4-------4-------|4-------4---3-2-|--------2-------|2-------2-----0-|
D|----------4---4-|----------------|----------2---2-|----------2-----|
A|----------------|----------------|----------------|----------------|
E|----------------|----------------|----------------|----------------|
  ^   ^   ^   ^    ^   ^   ^   ^    ^   ^   ^   ^    ^   ^   ^   ^    
                                   |I.                                
G|5-------5-------|5-------5---7---|0-------0-------|0-------0-------|
D|----------5---5-|----------------|----------0---0-|------------4---|
A|----------------|----------------|----------------|----------------|
E|----------------|----------------|----------------|----------------|
  ^   ^   ^   ^    ^   ^   ^   ^    ^   ^   ^   ^    ^   ^   ^   ^    
                                   |II.                               
Ending:                            |0---------------|0---------------|
                                   |--------0--2--4-|----------------|
                                   |----------------|----------------|
                                   |----------------|----------------|
                                    ^   ^   ^   ^    ^   ^   ^   ^    
            
Hard to play? Try these video lessons and learn fast. | Correct




comments powered by Disqus
↑ Back to top | Tablatures and chords are parodies/interpretations of the original songs. You may use it for private study, scholarship, research or language learning purposes only