» » »

Talking Heads, Heaven Tabs (ver.1)

Artists:  A B C D E F G H I J K L M N O P Q R S T U V W X Y Z # 

Heaven Tabs (ver.1)

Talking Heads Tabs
 Rating:
4.3/5 (6 votes)
Heaven lessons Tabs too difficult? Try these video lessons and learn fast
1
                -------------------------------------------------------------------------------
-------------------------------------------------------------------------------
Standard Tuning:

Intro

e|-2----2-----------2----2-----------0----0--------0----0--------------------|
B|-3------3---------3------3---------0------3-0----0------3-0----------------|
G|-2--------0h2p0---2--------0h2p0---0----------0--0----------0--------------|
D|-0--0-------------0--0-------------2--2----------2--2----------------------|
A|-0----------------0----------------2-------------2-------------------------|
E|-----------------------------------0-------------0-------------------------|

e|-0----0---------3----3----------3-----3---------2----2---------------------|
B|-2------2-------3------3----------3-----3-------3------3-------------------|
G|-2--------2-----0--------0----------0-----0-----2--------0h2p0-------------|
D|-2----------2---0--0-------0--0-----------------0--0-----------------------|
A|-0--0-----------2-------------2-------------2---0--------------------------|
E|----------------3-------------3--------------------------------------------|


   Everyone is trying...   
e|--------------2-----------------0-------0-------3--------------3--2--------|
B|---0------------3-----------------3-0-3-2---------3----------3----3--------|
G|-2---2--0--2------0h2p0--0----0---------2-----------0------0------2--------|
D|-0---------0-------------2-2--2---------2-----0----------0--------0--------|
A|-------------------------2----2---------0-----2--------2-------------------|
E|-------------------------0----0---------------3--------3-------------------|


   Heaven...Heaven is a place..place where nothing..nothing ever happens
e|-----7-----------5-----------3-3--------------------3---------3-----3------|
B|-7---7----7-6-5--5-----------1---1--------------------3---------3-----3----|
G|-7---7----7-6-6--6-----------0-----0---0----------0-----0---0-----0-----0--|
D|-9---9----9-8-7--7-----------2--------------------0-------0----------------|
A|-9---9----9-8-7--7-----------3-------3------------2------------------------|
E|-7--------7-6-5-----------------------------------3------------------------|


(variations)
   Heaven...Heaven is a place...   

e|---------------------------------------------------------------------------|
B|----9b10~------------------------------------------------------------------|
G|-------------------7b9r7-5-------------------------------------------------|
D|---------------------------7~----------------------------------------------|
A|---------------------------------------------------------------------------|
E|---------------------------------------------------------------------------|


    Heaven....  is a place...
e|---------------------------------------------------------------------------|
B|---------------------------------------------------------------------------|
G|---10b11r10b11-------------------------------------------------------------|
D|---------------------------------------------------------------------------|
A|---------------------------------------------------------------------------|
E|---------------------------------------------------------------------------|

(ending)
   Nothing ever happens.
e|-3--3--3---2--3----3--3--3--3----------------------------------------------|
B|-1--1--1---3--3-------1--1--3----------------------------------------------|
G|-0--0--0---4--0--0----0--0--0----------------------------------------------|
D|-2--2--2---4--0-------2--2--0----------------------------------------------|
A|-3--3--3---2--2-------3--3--2----------------------------------------------|
E|--------------3-------------3----------------------------------------------|

| b  bend
| r  release bend   

| h  hammer-on
| p  pull-off
| ~  vibrato

===============================================================================
            
Submit corrections

comments powered by Disqus
↑ Back to top | Talking Heads Tabs for Heaven. Lyrics for acoustic guitar and electric guitar. 1 Tablatures and chords are parodies/interpretations of the original songs. You may use it for private study, scholarship, research or language learning purposes only