» » »

Cut From The Team Tabs (ver.1)

Artists:  A B C D E F G H I J K L M N O P Q R S T U V W X Y Z # 

Cut From The Team Tabs (ver.1)

Taking Back Sunday
Rating:
5/5 (3 votes)
Tabs too difficult? Try these video lessons and learn fast.
                Band: Taking Back SUnday




Standard Tuning

Intro:

Guitar 1

e|-----------------------|
B|-0----0----0----0------|
G|-4----4----4----4------|
D|-2----2----2----1------|
A|-4----0----2----2------|
E|-----------------------|

e|-----------------------|
B|-0----0----0----0------|
G|-4----4----4----4------|
D|-2----2----2----1------|
A|-4----0----2----2------|
E|-----------------------|
    1         2 

1. Your lipstick, his collar.. don't bother Angel
2. I know exactly what goes on


Guitar 1

e|------------------------------------------------------------------|          
B|------------------------------------------------------------------|           
G|---------4-4---4---------4-4---4---------4-4---4------------------|
D|-----2-------2-------2-------2-------2-------2-------1---2-1---1--| 2x
A|-4-4---4---------0-0---0---------2-2---2---------2-2---2-----2----|
E|------------------------------------------------------------------|
   . . . .     . . . . . .     .   . . . .     .   . . . . . . . .

Guitar 2

e|--------------------------------------|
B|--------------------------------------|
G|-66666666-----------------------------|
D|-66666666-77777777-99999999-99999999--| 2x
A|-44444444-77777777-99999999-99999999--|
E|----------55555555-77777777-77777777--|
   ........ ........ ........ ........


Verse:

GUitar 1:

e|------------------------------------------------------------------|          
B|------------------------------------------------------------------|           
G|---------4-4---4---------4-4---4---------4-4---4------------------|
D|-----2-------2-------2-------2-------2-------2-------1---2-1---1--| 4x
A|-4-4---4---------0-0---0---------2-2---2---------2-2---2-----2----|
E|------------------------------------------------------------------|
   . . . .     . . . . . .     .   . . . .     .   . . . . . . . .
   

Guitar 2

e|--------------------------------------|
B|--------------------------------------|
G|-66666666-----------------------------| 4x
D|-66666666-77777777-99999999-99999999--|
A|-44444444-77777777-99999999-99999999--|
E|----------55555555-77777777-77777777--|
   ........ ........ ........ ........
    1                 2 

1. When everything you'll get is
2. everything that you've wanted, princess
1. (well which would you prefer)
2. My finger on the trigger, or
1. (me face down, down across your floor)
2. Me face down, down across your floor
1. (me face down, down across your floor)
2. Well just so long as this thing's loaded




Chorus

Guitars 1 & 2

e|--------------------------------------|
B|--------------------------------------|
G|-66666666----------99999999-----------|
D|-66666666-99999999-99999999-77777777--| 6x
A|-44444444-99999999-77777777-77777777--|
E|----------77777777----------55555555--|
    1                 2

1. And will you tell all your friends
2. you've got your gun to my head
1. This all was only wishful thinkin,
2. this all was only wishful thinkin
1. And will you tell all your friends
2. you've got your gun to my head
1. This all was only wishful thinkin,
2. this all was only wishful thinkin let's go...

Riff:

Guitar 1

e|------------------------------------------------------------------|          
B|------------------------------------------------------------------|           
G|---------4-4---4---------4-4---4---------4-4---4------------------|
D|-----2-------2-------2-------2-------2-------2-------1---2-1---1--| 4x
A|-4-4---4---------0-0---0---------2-2---2---------2-2---2-----2----|
E|------------------------------------------------------------------|
   . . . .     . . . . . .     .   . . . .     .   . . . . . . . .

Guitar 2

e|--------------------------------------|
B|--------------------------------------|
G|-66666666-----------------------------|
D|-66666666-77777777-99999999-99999999--| 4x
A|-44444444-77777777-99999999-99999999--|
E|----------55555555-77777777-77777777--|
   ........ ........ ........ ........

Verse:

Guitar 1

e|------------------------------------------------------------------|          
B|------------------------------------------------------------------|           
G|---------4-4---4---------4-4---4---------4-4---4------------------|
D|-----2-------2-------2-------2-------2-------2-------1---2-1---1--| 4x
A|-4-4---4---------0-0---0---------2-2---2---------2-2---2-----2----|
E|------------------------------------------------------------------|
   . . . .     . . . . . .     .   . . . .     .   . . . . . . . .

Guitar 2

e|--------------------------------------|
B|--------------------------------------|
G|-66666666-----------------------------|
D|-66666666-77777777-99999999-99999999--| 4x
A|-44444444-77777777-99999999-99999999--|
E|----------55555555-77777777-77777777--|
   ........ ........ ........ ........
    1                 2

1. Don't bother trying to explain
2. Angel, I know exactly
1. what goes on
2. when you're on and
1. How about I'm outside of your window
2. (how about I'm outside of your window)
1. Watchin him keep the details covered
2. You're such a sucker (you're such a sucker) for a sweet talker, yeah


Chorus

Guitars 1 & 2

e|--------------------------------------|
B|--------------------------------------|
G|-66666666----------99999999-----------|
D|-66666666-99999999-99999999-77777777--| 6x
A|-44444444-99999999-77777777-77777777--|
E|----------77777777----------55555555--|
    1                 2

1. And will you tell all your friends
2. you've got your gun to my head
1. This all was only wishful thinkin,
2. this all was only wishful thinkin
1. (the only thing... )
   And will you tell all your friends
2.  ( that I regret... )
    you've got your gun to my head
1.  ( is that I, I never let you... )
    This all was only wishful thinkin,
2.  ( hold me back! )
    this all was only wishful thinkin


( Piano Part )

Bridge:

Guitar 1

e|---------------------------|
B|---9----------9-10-9h10p9--|
G|--9----------9-------------|
D|-9----------9--------------|
A|---------------------------|
E|---------------------------|


Outro:

Guitar 1

e|-------------|
B|-------------|
G|-6~--2~--4~--|
D|-6~--2~--4~--| 3x
A|-4~--0~--2~--|
E|-------------|

Guitar 2 ( right after guitar 1 finishes )

e|--------------|
B|--------------|
G|--------------|
D|--------------| 3x
A|-7-6---7-6----|
E|-----7-----7--|

After all that is played..

Guitar 1

e|-------------------|
B|-------------------|
G|-666-222-44444444--|
D|-666-222-44444444--|
A|-444-000-22222222--|
E|-------------------|

Outro: Continued

Both Guitars

e|--------------------------------------|
B|--------------------------------------|
G|-66666666-----------------------------|
D|-66666666-77777777-99999999-99999999--| 6x
A|-44444444-77777777-99999999-99999999--|
E|----------55555555-77777777-77777777--|


Lyrics

Your lipstick, his collar.. don't bother Angel
I know exactly what goes on

When everything you'll get is
everything that you've wanted, princess
(well which would you prefer)
My finger on the trigger, or
(me face down, down across your floor)
Me face down, down across your floor
(me face down, down across your floor)
Well just so long as this thing's loaded

And will you tell all your friends
you've got your gun to my head
This all was only wishful thinkin,
this all was only wishful thinkin
And will you tell all your friends
you've got your gun to my head
This all was only wishful thinkin,
this all was only wishful thinkin
let's go...

Don't bother trying to explain Angel
I know exactly what goes on when you're on and
How about I'm outside of your window
(how about I'm outside of your window)
Watchin him keep the details covered
You're such a sucker (you're such a sucker)
for a sweet talker, yeah

And will you tell all your friends
you've got your gun to my head
This all was only wishful thinkin,
this all was only wishful thinkin
(the only thing that I regret is that I, I never let you hold me back)
And will you tell all your friends
you've got your gun to my head
This all was only wishful thinkin,
this all was only wishful thinkin

Hoping for the best just hoping nothing happens
A thousand clever lines unread on clever napkins
I will never ask if you don't ever tell me
I know you well enough to know you never loved me
Hoping for the best just hoping nothing happens
A thousand clever lines unread on clever napkins
I will never ask if you don't ever tell me
I know you well enough to know you never loved me
Hoping for the best just hoping nothing happens
A thousand clever lines unread on clever napkins
I will never ask if you don't ever tell me
I know you well enough to know...

Why can't I feel anything
Why can't I feel anything

And all of this was all your fault
And all of this

(I stay jealous)
I stay wrecked and jealous for this,
for this simple reason
I just need to keep you in mind
as something larger than life
(she'll destroy us all before she's through
and find a way to blame somebody else)
I stay wrecked and jealous for this,
for this simple reason
I just need to keep you in mind
as something larger than life
(she'll destroy us all before she's through
and find a way to blame somebody else)
I stay wrecked and jealous for this,
for this simple reason
I just need to keep you in mind
as something larger than life!
            
Tabs too difficult? Try these video lessons and learn fast.


comments powered by Disqus
↑ Back to top | Tablatures and chords are parodies/interpretations of the original songs. You may use it for private study, scholarship, research or language learning purposes only