>
 >
Cut From The Team 1

Cut From The Team 1 Guitar Tabs

Taking Back Sunday - Cut From The Team 1 chords, tabs, tablatures, lyrics

Guitar lessons | Add/correct | Request | Top 50 tabs Artists:  A B C D E F G H I J K L M N O P Q R S T U V W X Y Z 0-9

Cut From The Team 1 Guitar Tabs – Taking Back Sunday

CD, Sheet music, Poster

Do you like Cut From The Team 1? Share with your friends now
TabsTabs v2
Intro. Electric guitar. W/Chorus. Let chords ring.

                                                  Your lipstick, his collar...
e|---------------------------------------|
B|-5----5---------4----5----5---------4--|
G|-4----4----4----4----4----4----4----4--|
D|-x----2----x----x----x----2----x----x--|
A|-4----0----2----6----4----0----2----6--|
E|---------------------------------------|

Verse- Palm muted    C#5     A5        B5
e|----------------------------------------|
B|----------------------------------------|
G|-66666666-22222222-4444444444444444-----|
D|-66666666-22222222-4444444444444444-----|
A|-44444444-00000000-2222222222222222-----|
E|----------------------------------------|

Verse Riff 1                                         PM---
e|-----------------------------------------|
B|---0-0--0---0-0--0---0-0--0--------------|
G|-----------------------------------------|
D|-----------------------------------------|
A|------------------------------6-7-6-4-6--|
E|------------------------------7-7--------|

Chorus-    C#5      B5     E5       A5
e|-----------------------------------|
B|-----------------------------------|
G|-6-6--66-4-4--44-9-9--99-----------|
D|-6-6--66-4-4--44-9-9--99-7-7--77---|
A|-4-4--44-2-2--22-7-7--77-7-7--77---|
E|--------------------------5-5--55--|

Bridge-
     C#m    B           E         A
Strum each chord once
e|-4-----2------7-----5---|
B|-5-----4------9-----5---|
G|-6-----4------9-----5---|
D|-6-----4------9-----7---|
A|-4-----2------7-----7---|
E|---------------------5--|

Bridge Riff- The phrases aren't this close together in the song, listen for the spacing 
(* means play as a harmonic)

                                                                Hope for the best...
e|-----4---12*----4-5-4h5p4---------4-7*-----4-5-4h5p4-7*----12*------7*-12---|
B|---5----------5------------7*----5--------5-------------------7*------------|
G|-4----------4------------------4--------4-----------------------------------|
D|----------------------------------------------------------------------------|
A|----------------------------------------------------------------------------|
E|----------------------------------------------------------------------------|

Bridge II-   C#5      A5   B5
Play 4 times (fourth time hold the B5)

                                   And all of this...
e|-------------------------|
B|-------------------------|
G|-6--2--4-----------------|
D|-6--2--4--2p1---2p1------|
A|-4--0--2-------2-----2p0-|
E|-------------------------|

Outro- Same chords as verse (not palm muted)

I stay wrecked and jelous...

C#5         A5          B5
Play this 6 times.
End- play each chord once.





Comments


Popular Taking Back Sunday tabs & chords
This Photograph Is Proof Bass Tabs
Sad Savior Chords
Cute Without The E 4 Tabs
Ill Let You Live 1 Tabs
Set Phasers To Stun 1 Tabs
There Is No I In Team 1 Tabs
This Photograph Is Proof Tabs
Whats It Feel Like To Be A Ghost 3 Tabs
You Know How I Do 1 Tabs
Where My Mouth Is Ukulele


Song lyrics



↑ Back to top | Tablatures and chords are parodies/interpretations of the original songs. You may use it for private study, scholarship, research or language learning purposes only
© 2014 AZChords.com Contact us | Privacy policy | DMCA | Add/correct tabs | Request tabs | Top 50 tabs