>
 >
Cute With Out The E Cut From The Team

Cute With Out The E Cut From The Team Guitar Tabs

Taking Back Sunday - Cute With Out The E Cut From The Team chords, tabs, tablatures, lyrics

Guitar lessons | Add/correct | Request | Top 50 tabs Artists:  A B C D E F G H I J K L M N O P Q R S T U V W X Y Z 0-9

Cute With Out The E Cut From The Team Guitar Tabs – Taking Back Sunday

CD, Sheet music, Poster

Do you like Cute With Out The E Cut From The Team? Share with your friends now
Tabs
********************************************************************

Tuning: e B G D A E (standard)


Intro:

e:-----------
B:-----------
G:-----------
D:-6--2--4--4     2x
A:-4--0--2--2
E:-----------

Verse Rhythm:

e:------------------------------------
B:------------------------------------
G:------------------------------------    palm mute
D:66666666--22222222--4444444444444444
A:44444444--00000000--2222222222222222
E:------------------------------------

Verse Lead:

e:-----------------------------
B:-----------------------------
G:-----------------------------  *mild palm mute
D:999--999--99---------6-------
A:------------------7----7---7-
E:---------------99---9----9---
                 **************

Chorus Both:

e:--------------------------------------
B:--------------------------------------
G:--------------------------------------
D:66666666--44444444--99999999--22222222
A:44444444--22222222--77777777--00000000
E:--------------------------------------

Break Down (interlude)
Lead: (do the 9-10-9-10-9-10 part fast, or hammer on and pull off)

e:--------------------------        e:---4-----4-5-4-5-4-5
B:----9-------9-10-9-10-9-10        B:--5-----5-----------
G:--9------9----------------        G:4-----4-------------
D:9-----9-------------------    OR  D:--------------------
A:--------------------------        A:--------------------
E:--------------------------        E:--------------------

Break Down (interlude)
Rhythm: (this is used as a Substitute for the piano part)
(yeah there is a piano part in there, not very loud,Noticeable,or clear)

e:------------
B:------------
G:------------
D:6--4--9--2--
A:4--2--7--0--
E:------------

Part After The Break Down(follows Immediately after)
Rhythm

e:------
B:------
G:------
D:6-2-4-
A:4-0-2-
E:------

Part After The Break Down(follows Immediately after rhythm part)
Lead:

e:------------          e:-----------
B:------------          B:-----------     Make Sure You
G:------------          G:2-1---2-1--     Do Each part
D:7-6----7-6--     OR   D:---2-----2-      Really Fast
A:---7------7-          A:-----------
E:------------          E:-----------

Outro:

e:---------------------------
B:---------------------------         Do This About 6x
G:---------------------------         And on the 5th time
D:66666666-22222222-44444444-      palm mute but take your hand off
A:44444444-00000000-22222222-      when you strike each string
E:---------------------------

End On:

e:------
B:------
G:------
D:6-2-4-
A:4-0-2-
E:------





Comments


Popular Taking Back Sunday tabs & chords
Ghost Man On Third Bass Tabs
Great Romances Of The 20th Century 3 Bass Tabs
Number Five With A Bullet Bass Tabs
Faith When I Let You Down 1 Chords
Makedamnsure 2 Chords
A Decade Under The Influence Tabs
Divine Intervention Live Tabs
Head Club Tabs
There Is No I In Team Tabs
There's No "I" In Team Tabs


Song lyrics



↑ Back to top | Tablatures and chords are parodies/interpretations of the original songs. You may use it for private study, scholarship, research or language learning purposes only
© 2014 AZChords.com Contact us | Privacy policy | DMCA | Add/correct tabs | Request tabs | Top 50 tabs