» » »

Cute With Out The E Cut From The Team Tabs (ver.2)

Artists:  A B C D E F G H I J K L M N O P Q R S T U V W X Y Z # 

Cute With Out The E Cut From The Team Tabs (ver.2)

Taking Back Sunday
Rating:
0/5 (0 votes)

Tabs too difficult? Try these video lessons and learn fast.
                "(1)
E	on churs effect   do this twice
B
G-----4-4-4-4
D-----2-2-2-1
A-----4-0-2-2
E -----------------------------------------------------------------------------------

E			Rhythm guitar MAIN 
B		do this all 4 times  lightly palm muted
G		 
D 8 times	    8 times        16 times
A-11-11-11-11--7-7-7-7—--9-9-9-9			LIGHT DISTORTION ALSO
E—9—-9--9--9---5-5-5-5---7-7-7-7

			CHOURUS
E--------------------------------------------------------------------------------------------------
B--------------------------------------------------------------------------------------------------
G				DO THIS 4 TIMES
D------------------------------  9-9-9-9
A-11-11-11-11—  9-9-9-9----------7-7-7-7--7-7-7-7
E--9--9-9—-9—-  7-7-7-7------------------ 5-5-5-5---------------------------------------

E			Rhythm guitar MAIN 
B		do this all 4 times lightly palm muted
G		 
D 8 times	     8 times       16 times	  
A-11-11-11-11---- 7-7-7-7—--9-9-9-9			LIGHT DISTORTION ALSO
E—9—-9---9--9---  5-5-5-5---7-7-7-7

			CHOURUS
				DO THIS 4 TIMES
D------------------------------ 9-9-9-9
A-11-11-11-11— 9-9-9-9----------7-7-7-7--7-7-7-7-------------------------------------
E--9- 9-9— 9—  7-7-7-7-------------------5-5-5-5
			PIANO COMES ON NOW

E----4------4-5-4H5-----4-----4-5-4H5-----------------4
A---5----5-------------5---- 5----------------------5
D—4—   4--------------4-----4---------------4
G
B
E

E
B
G			YA THIS IS ON DISTOTION TO 
D
A-11---7---9------11—7—9---11---7----9
E—9--- 5---7-------9—5—7----9---5----7

E
B		ON DISTORTION AS WAS THE LAST THING DO 
G
D	DO THIS 5 TIMES	       THEN DO THIS ONCE
A-11-11-11-11----7-7-7-7---9-9-9-9-9-9-9-9-----11--7--9
E—9-- 9— 9— 9----5-5-5-5—  7-7-7-7-7-7-7-7-----9---5— 7

AND THAT IS THE WHOLE ENTIRE SONG
please rate this song
"            
Tabs too difficult? Try these video lessons and learn fast.




comments powered by Disqus
↑ Back to top | Tablatures and chords are parodies/interpretations of the original songs. You may use it for private study, scholarship, research or language learning purposes only