>
 >
Cute Without The 'e' (Cut From The Team) 1

Cute Without The 'e' (Cut From The Team) 1 Guitar Tabs

Taking Back Sunday - Cute Without The 'e' (Cut From The Team) 1 chords, tabs, tablatures, lyrics

Guitar lessons | Add/correct | Request | Top 50 tabs Artists:  A B C D E F G H I J K L M N O P Q R S T U V W X Y Z 0-9

Cute Without The 'e' (Cut From The Team) 1 Guitar Tabs – Taking Back Sunday

CD, Sheet music, Poster

Do you like Cute Without The 'e' (Cut From The Team) 1? Share with your friends now
Tabs
E	on churs effect   do this twice
B
G-----4-4-4-4
D-----2-2-2-1
A-----4-0-2-2
E -----------------------------------------------------------------------------------

E			Rhythm guitar MAIN 
B		do this all 4 times  lightly palm muted
G		 
D 8 times	    8 times        16 times
A-11-11-11-11--7-7-7-7--9-9-9-9			LIGHT DISTORTION ALSO
E9-9--9--9---5-5-5-5---7-7-7-7

			CHOURUS
E--------------------------------------------------------------------------------------------------
B--------------------------------------------------------------------------------------------------
G				DO THIS 4 TIMES
D------------------------------  9-9-9-9
A-11-11-11-11  9-9-9-9----------7-7-7-7--7-7-7-7
E--9--9-9-9-  7-7-7-7------------------ 5-5-5-5---------------------------------------

E			Rhythm guitar MAIN 
B		do this all 4 times lightly palm muted
G		 
D 8 times	     8 times       16 times	  
A-11-11-11-11---- 7-7-7-7--9-9-9-9			LIGHT DISTORTION ALSO
E9-9---9--9---  5-5-5-5---7-7-7-7

			CHOURUS
				DO THIS 4 TIMES
D------------------------------ 9-9-9-9
A-11-11-11-11 9-9-9-9----------7-7-7-7--7-7-7-7-------------------------------------
E--9- 9-9 9  7-7-7-7-------------------5-5-5-5
			PIANO COMES ON NOW

E----4------4-5-4H5-----4-----4-5-4H5-----------------4
A---5----5-------------5---- 5----------------------5
D4   4--------------4-----4---------------4
G
B
E

E
B
G			YA THIS IS ON DISTOTION TO 
D
A-11---7---9------1179---11---7----9
E9--- 5---7-------957----9---5----7

E
B		ON DISTORTION AS WAS THE LAST THING DO 
G
D	DO THIS 5 TIMES	       THEN DO THIS ONCE
A-11-11-11-11----7-7-7-7---9-9-9-9-9-9-9-9-----11--7--9
E9-- 9 9 9----5-5-5-5  7-7-7-7-7-7-7-7-----9---5 7

AND THAT IS THE WHOLE ENTIRE SONG
please rate this song





Comments


Popular Taking Back Sunday tabs & chords
Makedamnsure 2 Bass Tabs
Alone Forever 1 Tabs
Best Places To Be A Mom Tabs
Cute Without The E The Real Way Tabs
Liar It Takes One To Know One 4 Tabs
Lost And Found Tabs
Summer Man Intro Tabs
New American Classic Ukulele
Number Five With A Bullet Ukulele
Your Own Disaster Ukulele


Song lyrics



↑ Back to top | Tablatures and chords are parodies/interpretations of the original songs. You may use it for private study, scholarship, research or language learning purposes only
© 2014 AZChords.com Contact us | Privacy policy | DMCA | Add/correct tabs | Request tabs | Top 50 tabs