>
 >
System Of A Down Riffs

System Of A Down Riffs Guitar Tabs

System Of A Down - System Of A Down Riffs chords, tabs, tablatures, lyrics

Guitar lessons | Add/correct | Request | Top 50 tabs Artists:  A B C D E F G H I J K L M N O P Q R S T U V W X Y Z 0-9

System Of A Down Riffs Guitar Tabs – System Of A Down

CD, Sheet music, Poster

Do you like System Of A Down Riffs? Share with your friends now
Tabs
ENDING OF WAR AT LOWLANDS

G---------------------------------------------------------|
C--0-7-6--0-7-6-6-5---0-7-6--0-7-6-6-5--------------------|

			Just Screw With It To Make It More
				Interesting.




THETAWAVES

SOLO:
|-------------------------------------------------|
|-12-12-12-12-12-12-12-12-14-14-14-14-15-15-15-15-|
|-------------------------------------------------|
|-------------------------------------------------|
|-------------------------------------------------|
|-------------------------------------------------|

|-------------------------------------------------|
|-14-14-14-14-14-14-14-14-------------------------|
|-------------------------12-12-12-12-11-11-11-11-|
|-------------------------------------------------|
|-------------------------------------------------|
|-------------------------------------------------|

|-------------------------------------------------|
|-12-12-12-12-12-12-12-12-14-14-14-14-15-15-15-15-|
|-------------------------------------------------|
|-------------------------------------------------|
|-------------------------------------------------|
|-------------------------------------------------|

|--------------------------------------------------|
|-14-14-14-14-14-14-14-14-/19-19-19-19-19-19-19-19-|
|--------------------------------------------------|
|--------------------------------------------------|
|--------------------------------------------------|
|--------------------------------------------------|

SOLO B:
|----------------------------------------------------|
|-20--19-17-19--17-15-17--15-14-15--14--17--15-14-15-|
|----------------------------------------------------|
|----------------------------------------------------|
|----------------------------------------------------|
|----------------------------------------------------|

|-----------------------------------------------------|
|-14-12-11-12-14--14--14-1414-12-12-12-12-11-11-11-11-|
|-----------------------------------------------------|
|-----------------------------------------------------|
|-----------------------------------------------------|
|-----------------------------------------------------|

|-------------------------|
|-12-12-12-12-11-11-11-11-|
|-------------------------|
|-------------------------|
|-------------------------|
|-------------------------|





TEMPER INTRO

D|----------------------------------------------------1----|
A|----------------------2h3--2h3-1------1--1-2h3--1-3---4--|
F|-3--3-2h3p2-0--0-2--2------------3--3--------------------|


D|-3---5-6--5-6-5----------------|
A|---6------------3--3-4--(4-3)--|()=repeat


TEMPER SOLO

D|--------------------------------------------------------------------------|
A|-----1-3--1-1-------------------------2h3-3-4-4h6-4-1-3-4-3b-0-1-3-1-1-4-3|
F|-3-3-------3--3-2-3-2-0--0-2-3-3/5-2--------------------------------3-----|

 
D|-------3-2---2---|
A|-0-3-4-----4---4-|





STREAMLINE SOLO

|--8---10---11----13-11-10-11-10-8-8---10---11---13-11-10-11-10-8-15----------
|----8----8----8---------------------8----8----8---------------------15-16----
|-----------------------------------------------------------------------------
|-----------------------------------------------------------------------------
|-----------------------------------------------------------------------------
|-----------------------------------------------------------------------------

|----------------15----------------------8---10---11---13-11-10-11-10-8-------
|-15-13-15-13-------15-16-15-13-15-13------8----8----8------------------------
|-------------15----------------------15--------------------------------------
|-----------------------------------------------------------------------------
|-----------------------------------------------------------------------------
|-----------------------------------------------------------------------------

|--15----------------------15-------------------------------------------------|
|-----15-16-15-13-15-13-------15-16-15-13-15-13-------------------------------|
|-----------------------15----------------------15----------------------------|
|-----------------------------------------------------------------------------|
|-----------------------------------------------------------------------------|
|-----------------------------------------------------------------------------|




SPIDERS SOLO     
   
    F|--14------15------18------14------15------18--|
    C|---x-------x-------x-------x-------x-------x--|
    G|--12------13------16------12------13------16--|
    C|----------------------------------------------|

     
    
    F|---19------20------18------19------20------18-|          
    C|---x-------x-------x-------x-------x-------x--|     Hit Notes Multiple Times
    G|--17------18------16------17------18------16--|              
    C|----------------------------------------------|              





SOIL SOLO

--(10)------------|--------10-12--|-13----------12--13--|-15-----------------|
------------------|--------10-----|---------------------|-----------10^(10)--|
------------------|--------10-----|---------------------|--------------------|
------------------|---------------|---------------------|--------------------|
----0-------------|---------------|---------------------|--------------------|
----0-------------|---------------|---------------------|--------------------|

-----------10-12--|-13-----------------|---------------------|
-----------10-----|-----------------10^|(10)--------x---x--x-|
-----------10-----|--------------------|------------x---x--x-|
------------------|--------------------|------------x---x--x-|
------------------|--------------------|---------------------|
------------------|--------------------|---------------------|

------------------------------|----------------------------|-----------------|
------------------------------|----------------------------|-----------------|
------------------------------|----------------------------|-----------------|
-----3h-----3h-----3h-----3h--|---3h-----3h-----3h-----3h--|-----------------|
--3h5--5-3h5--5-3h5--5-3h5--5-|3h5--5-3h5--5-3h5--5-3h5--5-|3h5--------------|
------------------------------|----------------------------|-----------------|

-------------|----------------------------|----------------------------|
------x--x-x-|----------------------------|----------------------------|
------x--x-x-|----------------------------|----------------------------|
------x--x-x-|---3h-----3h-----3h-----3h--|---3h-----3h-----3h-----3h--|
-(5)---------|3h5--5-3h5--5-3h5--5-3h5--5-|3h5--5-3h5--5-3h5--5-3h5--5-|
-------------|----------------------------|----------------------------|

-----|---------------|--------------------------------------------|
-----|---------------|--------------------------------------------|
-----|----------(11)-|-----10h--------10h--------10h--------10h---|
-----|---------------|10h12---12-10h12---12-10h12---12-10h12---12-|
-3h5-|-------/5\-----|--------------------------------------------|
-----|---------------|--------------------------------------------|

--------------------------------------------|--------------|-------------|
--------------------------------------------|-11---11^(11)-|10-----------|
-------10h--------10h--------10-12^---12h10-|--------------|---10--10-10-|
--10h12---12-10h12---12-10h12---------------|--------------|-------------|
--------------------------------------------|--------------|-------------|
--------------------------------------------|--------------|-------------|

------------10------------10-|------------10---------------------|
------10-10-10------10-10-10-|------10-10-10---------------------|
-10h--10-10----10h--10-10----|-10h--10-10----------10-12^--12p10-|
-10-12---------10-12---------|-10-12---------10h12---------------|
-----------------------------|-----------------------------------|
-----------------------------|-----------------------------------|
                                  ph
-----------------13-15-|15--15-15-15-15^--15^--15^--15^--15^--15^-|
-13^(13)-13\8/15-------|------------------------------------------|
-----------------------|------------------------------------------|
-----------------------|------------------------------------------|
-----------------------|------------------------------------------|
-----------------------|------------------------------------------|

(Gtr.1 w
---------------------------------------|-------------------------------------|
---------------------------------------|-------------------------------------|
---------------------------------------|-------------------------------------|
--10--11-11-10--10-10-10\7-7-7-7\6-6-6-|-7--7-7-10--10-10-10\11-11-11-10--10-|
---9--10-10--9---9--9--9\6-6-6-6\5-5-5-|-6--6-6--9---9--9--9\10-10-10--9---9-|
---------------------------------------|-------------------------------------|
                       

-------------------------------------------|--------------------------------|
-------------------------------------------|--------------------------------|
-------------------------------------------|--------------------------------|
-11--11-11-11/14-14-14-14\13-13-13-13\11-11|10--10-10-10\7-7---7\6-5--6/----|
-10--10-10-10/13-13-13-13\12-12-12-12\10-10|-9---9--9--9\6-6---6\5-4--5/----|
-------------------------------------------|--------------------------------|
                              

----------------------------------------|---------------------------------------
----------------------------------------|---------------------------------------
11/12-12-12-12\11-11-11-11\8-8-8-8\7-7-7|7/8-8-8-8/11-11-11-11/12-12\11-11-11-11
----------------------------------------|---------------------------------------
----------------------------------------|---------------------------------------
----------------------------------------|---------------------------------------
                             

-----------------------------------------------|------------------------------xx
-----------------------------------------------|--------------------------------
11/12-12-12-12/15-15-15-15\14-14-14-14\12-12-12|12\11-11-11-11\8-8-8-8\7-7-7-7--
-----------------------------------------------|--------------------------------
-----------------------------------------------|--------------------------------
-----------------------------------------------|--------------------------------


-14/15-15-15-15\14-14-14-14\11-11-11-11\10-10-10|
------------------------------------------------|
------------------------------------------------|
------------------------------------------------|
------------------------------------------------|
------------------------------------------------|

10/11-11-11-11/14-14-14-14/15-15\14-14--14-14-|
----------------------------------------------|
----------------------------------------------|
----------------------------------------------|
----------------------------------------------|
----------------------------------------------|

-14/15-15-15-15/18-18-18-18\17-17-17-17\15-15-15-|
-------------------------------------------------|
-------------------------------------------------|
-------------------------------------------------|
-------------------------------------------------|
-------------------------------------------------|

15\14-14-14-14\11-11-11-11\10-10-10-10--|
----------------------------------------|
----------------------------------------|
----------------------------------------|
----------------------------------------|
----------------------------------------|




SHIMMY INTERLUDE

|-------------------------
|-------------------------
|-------------------------
|-------------------------
|s7--8--7--5--3--2--0-----
|----------------------6--


-------------------------------------------------|
-------------------------------------------------|
-------------------------------------------------|
-------6--7-6h7p6--------------------------------|
s7--8-------------8--7--8--7--5--3--2--3--2--0---|
------------------------------------------------6|





NATIONS AT LOWLANDS


|-12-10----12-10----12-10----12-12-10----12-12-10---10-10--12--12--13
|--------------------------------------------------------------------
|--------------------------------------------------------------------
|--------------------------------------------------------------------
|--------------------------------------------------------------------
|--------------------------------------------------------------------

|-13--16--16--12--12--13--13--16-17-19-17-16-17-16--12--12--13--13-16
|--------------------------------------------------------------------
|--------------------------------------------------------------------
|--------------------------------------------------------------------
|--------------------------------------------------------------------
|--------------------------------------------------------------------

|---16-17-19-17-16---12--12--13--13---16-------------16-16-16-16^-17-
|--------------------------------------------------------------------
|--------------------------------------------------------------------
|--------------------------------------------------------------------
|--------------------------------------------------------------------
|--------------------------------------------------------------------

|17-17-17-17-17-17-17-17-17-19-19-19-19-19-19-19-17-17-17-17-17-16-16
|--------------------------------------------------------------------
|--------------------------------------------------------------------
|--------------------------------------------------------------------
|--------------------------------------------------------------------
|--------------------------------------------------------------------

|-16-16-16-16-16-16-16-16-16-----------------------------------------|
|--------------------------------------------------------------------|
|--------------------------------------------------------------------|
|--------------------------------------------------------------------|
|--------------------------------------------------------------------|
|--------------------------------------------------------------------|





SCIENCE SOLO

|----------------------------------8-----------|
|------8-10-----8-10-11----8-10-11---11-10-----|
|----7--------7----------7-----------------7---|
|----------------------------------------------| (2 times)
|--0--------0-----------0----------------------|
|--0--------0-----------0----------------------|

|----------------------------------8----8------|
|------8-10-----8-10-11----8-10-11---11---11---|
|----7--------7----------7---------------------|
|----------------------------------------------| (1 time)
|--0--------0-----------0----------------------|
|--0--------0-----------0----------------------|
   Pm        .           .

|-----------------------------------------------|
|-----8-10-8-7-7-7h8p7-------8-10-11-8-10-10-10-|
|---7------------------7---7--------------------|
|-----------------------------------------------|(5 times)
|-0----------------------0----------------------|
|-0----------------------0----------------------|
  Pm                      .

|-----------------------------------------------|
|-----8-10-8-7-7-7h8p7--------------------------|
|---7------------------7------------------------|
|-----------------------------------------------| (1 time)
|-0---------------------------------------------|
|-0---------------------------------------------|
  pm


|-------------------------------------------------|
|---8-10-11-8-10-10-10-11-8-10-10-10-11-8-10-10-10|
|--7----------------------------------------------|
|-------------------------------------------------|(1 time)
|0------------------------------------------------|
|0------------------------------------------------|





PSYCHO SOLO LIVE

|-----------------------------------------------------|
|-12--10-12-13--12-13-12h13p12------12-------------12-|
|------------------------------14------14-13-13h14----|
|-----------------------------------------------------|
|-----------------------------------------------------|
|-----------------------------------------------------|

|---------------12-------------------------------------------------|
|-10-12---10-12-----13-12-13-12h13p12------------------12----------|
|-------------------------------------14^(14)^(14)-14-----14-13-13-|
|------------------------------------------------------------------|
|------------------------------------------------------------------|
|------------------------------------------------------------------|

|-----------------------------------|
|-----------------12----------------|
|-13-14-13--13-14----14-13-14----14-|
|-----------------------------14----|
|-----------------------------------|
|-----------------------------------|

|--------------------------------------------------------------|
|-12-12-12-12-12-12-10-12-13-13-13-12-13-12-10-10-10-10-10-10--|
|---9--9--9--9--9--9--9--9--9--9--9--9--9--9--9--9--9--9--9--9-|
|--------------------------------------------------------------|
|--------------------------------------------------------------|
|--------------------------------------------------------------|

|---------------------------------------------------------------|
|-12-12-10-9-9-10-12-12-12-12-12-12-10-12-12-12-12-12-12-10-12--|
|---9--9--9-9-------9--9--9--9--9--9--9--9--9--9--9--9--9--9--9-|
|---------------------------------------------------------------|
|---------------------------------------------------------------|
|---------------------------------------------------------------|

|-10-10-10----------------------------------------|
|----------12-13-12-10-10-10-10-10-10-12---10---9-|
|---9--9--9--9--9--9--9--9--9--9--9--9---9----9---|
|-------------------------------------------------|
|-------------------------------------------------|
|-------------------------------------------------|

|-*12-12-12-12-12-------------------------------------------------------------------------10-12-12-
|-----------------------13-12-10-12-12h13-13^-13-13-12-10----------12-12-13-13-----------------------------
|----------------------------------------------------------13-14-------------------------------------------
|-----------------------------------------------------------------------------------------------------------
|-----------------------------------------------------------------------------------------------------------
|-----------------------------------------------------------------------------------------------------------

|-13-15-15-13-12-10-10-12-13-12h13p12----------------------------------------------------------
|---------------------------------------------------15-13-12-12--12h13p12p10-10-10-15-13-12--
|----------------------------------------------------------------------------------------------
|----------------------------------------------------------------------------------------------
|----------------------------------------------------------------------------------------------
|----------------------------------------------------------------------------------------------

|---------------------------------------------------------------------------------10--------------------
|-12--12h13p12p10-10-10-10-9-9-9-10-12-13-13p12p10-12p10-----13-12-10-12-10-
|----------------------------------------------------------------------------------------------------------
|----------------------------------------------------------------------------------------------------------
|----------------------------------------------------------------------------------------------------------
|----------------------------------------------------------------------------------------------------------

|-10-----------------------------------------
|----13-12-10-12-10-13-12-13-15--------------
|---------------------------------------------
|----------------------------------------------
|---------------------------------------------
|----------------------------------------------

|------------------------0-0---0--0-----------
|-15-13-12-13-12-10-10-10-10- 10-10------
|---------------------------------------------
|-----------------------------------------------
|---------------------------------------------
|-------------------------------------------------




PRISON SONG LIVE OUTRO


D-----1---------3--1--0---------
A--------3----------------------
F-----------2-------------------
C--0----------------------------
G-------------------------------
C-------------------------------

D-------------------------------
A---------3------------5--------
F------------3------------5-----
C------3-------------5----------
G---1-------------3-------------
C-------------------------------

While he's singing he plays:
D-----3---------3---------------
A--------3---------3------------
F-----------2---------2---------
C--0----------------------------
G-------------------------------
C-------------------------------

D-------------------------------
A---------5------------5--------
F------------5------------5-----
C------5-------------5----------
G---3-------------3-------------
C-------------------------------





PEEPHOLE SOLO


D|------------------------------------------------------------------------------|
A|15--16015h16p15------15--15-16-15h16p15------15-15-16-15h16p15----15----------|
F|-----------------17----------------------17--------------------17----17-15-14-|
C|------------------------------------------------------------------------------|
G|------------------------------------------------------------------------------|
C|------------------------------------------------------------------------------|
            let ring........................................ 

D|------------------------------------------------------------------|
A|------------------------------------------------------------------|
F|--15-14h15p14-----------0-------0------0------0------0-------0----|
C|--------------17----16------16-----16-----16-----16------16-------|
G|------------------------------------------------------------------|
C|------------------------------------------------------------------|

D|---*10----*10----*10-----*10------------*9---*9-----9-----*7-------------|
A|-8------8------8------8-------8-8-8--7-----7-----7-----7------7\14--14---|
F|-------------------------------------------------------------------------|
C|-------------------------------------------------------------------------|
G|-------------------------------------------------------------------------|
C|-------------------------------------------------------------------------|

D|-------16----16^--------16--16--16----------10-----10-----10-----10----------|
A|-14----14----14^--------14--14--14--14\8--------8------8------8-----8--8--8--|
F|-------------1/2 bend--------------------------------------------------------|
C|-----------------------------------------------------------------------------|
G|-----------------------------------------------------------------------------|
C|-----------------------------------------------------------------------------|

D|---*9-----9-----9------------------8-----8/10---8--(8)\-----6--6h/8---6-----|
A|7------7-----7-----7-7-7-7-6--6-------------------------4-----------------6-|
F|----------------------------------------------------------------------------|
C|----------------------------------------------------------------------------|
G|----------------------------------------------------------------------------|
C|----------------------------------------------------------------------------|

D|-----10-----10------*10------*10-----------------9-----*9-----*9--------------|
A|--8------8------8---------8--------8--8--8--*7------7------7-------7-7-7-7\14-|
F|------------------------------------------------------------------------------|
C|------------------------------------------------------------------------------|
G|------------------------------------------------------------------------------|
C|------------------------------------------------------------------------------|

D|------16---1616----16^-^16--*16--16-----16-16-16-16-16-16-16\14---------|
A|-14---14---1414----1/2---------------14-------------------------12------|
F|------------------------------------------------------------------------|
C|------------------------------------------------------------------------|
G|------------------------------------------------------------------------|
C|------------------------------------------------------------------------|

D|-15----15----15----15------15-15-15-15----15---15-----15--15---15-------|
A|-14----14----14----14------14-14-14-14----14---14-----14--14---14\------|
F|-12----12----12----12------12-12-12-12----12---12-----12--12---12\------|
C|------------------------------------------------------------------------|
G|------------------------------------------------------------------------|
C|------------------------------------------------------------------------|





NUGUNS SOLO


SOLO: (guitar 1) 
|-----------------------------------------------------------|
|-----------------------------------------------------------|
|-7(trem)--8(trem)--7----7^---------------------------------|
|---------------------10-----10-8-10^--8-7-8^--7----7(trem)-|
|------------------------------------------------10---------|
|-----------------------------------------------------------|

|--------------------------------------------------------------------|
|-----------------------------10(trem)---13--11-10-10h11p10-10h11p10-|
|--------------------------------------------------------------------|
|-10^--8-7-8^--7---------7-------------------------------------------|
|----------------10-9-10---10----------------------------------------|
|--------------------------------------------------------------------|

|---------------------------------------------------------------|
|-13-11-10-10h11p10-10h11p10--10(trem)---13--11-10-11--10-------|
|---------------------------------------------------------12-11-|
|---------------------------------------------------------------|
|---------------------------------------------------------------|
|---------------------------------------------------------------|

SOLO: (guitar 2)
|-11-11-11-12-14-12-11-12-11----11----------------------|
|----------------------------14----14-12-14-12-11-12-11-|
|-------------------------------------------------------|
|-------------------------------------------------------|
|-------------------------------------------------------|
|-------------------------------------------------------|

|-----------------------------------------------------|
|-----------------------------------------------------|
|-14-141414-141414-141414-141414-141414-141414-141414-|
|-----------------------------------------------------|
|-----------------------------------------------------|
|-----------------------------------------------------|

|------------------------------------------------------|
|------------------------------------------------------|
|15h17p15-15h17p15-15h17p15-15h17p15-15h17p15-15h17p15-|
|------------------------------------------------------|
|------------------------------------------------------|
|------------------------------------------------------|

|-------------------------------------------------------------|
|-------------------15-15-15-15-15-15-15-15h16-18-16-15-16-15-|
|-15h17p15-15h17p15-14-14-14-14-14-14-14-14-------------------|
|-------------------------------------------------------------|
|-------------------------------------------------------------|
|-------------------------------------------------------------|

|----------------------|
|----------------------|
|-17-15-13-12-13-15-13-|
|----------------------|
|----------------------|
|----------------------|




MARMALADE SOLO

|--5-5-5-5-5-5-5-5-7-7-7-7-7-7-8-8-8-8-8-4-4-4-4-4-4-4-4--12-12-12-12--|
|--5-5-5-5-5-5-5-5-7-7-7-7-7-7-8-8-8-8-8-4-4-4-4-4-4-4-4--13-13-13-13--|
|----------------------------------------------------------------------|
|----------------------------------------------------------------------|
|----------------------------------------------------------------------|
|----------------------------------------------------------------------|

|--12-12-12-12-5-5-5-5-5-5-5-5-7-7-7-7-7-8-8-8-8-3-3-3-3-3-3-3-3--|
|--12-12-12-12-5-5-5-5-5-5-5-5-7-7-7-7-7-8-8-8-8-3-3-3-3-3-3-3-3--|
|-----------------------------------------------------------------|
|-----------------------------------------------------------------|
|-----------------------------------------------------------------|
|-----------------------------------------------------------------|

|--12-12-12-12-12-12-12-12-5-5-7-7-8-8-7-7-10-10-8-8-7-7-8-8-4-4-5-5-7-7-|
|--13-13-13-13-12-12-12-12-----------------------------------------------|
|------------------------------------------------------------------------|
|------------------------------------------------------------------------|
|------------------------------------------------------------------------|
|------------------------------------------------------------------------|


|--5-5-8-8-7-7-5-5-7-7-5-5-7-7-8-8-7-7-10-10-8-8-7-7-8-8-3-3-5-5-7-7-5-5-|
|------------------------------------------------------------------------|
|------------------------------------------------------------------------|
|------------------------------------------------------------------------|
|------------------------------------------------------------------------|
|------------------------------------------------------------------------|


|--12-12-10-10-13-13-12-|
|-----------------------|
|-----------------------|
|-----------------------|
|-----------------------|
|-----------------------|




LA ISLA BONITA ROCK AM RING

F-----------------9-------------------7-----------5---------------------------------|
C------7--------9-----------5-------7-----------5-----------2-------4-----------3---|
G----7--------7----7------5-------5-----5-----3-----3-----2-------5-----------3-----|
C--7----7---------------5----5--------------------------2-------5-----5-----3----3--|

		Thats All, Just Screw Around With It A Bit And all
                               To Make It More Interesting.



JET PILOT INTERLUDE

|-----------------------------------------------------------------|
|-----------------------------------------------------------------|
|-----------------------------------------------------------------|
|--------3--------2--------0--------2--------0--------------------|4X
|-0-------------------------------------------------3-------1-----|
|-----------------------------------------------------------------|

|-----------------------------------------------------------------|
|------------------------------------------------6-5-----5--------|
|------------2---3---2---5---3---7---5---8---7-------7-5---7-5----|
|----3---5-----------------------------------------------------6--|
|-0---------------------------------------------------------------|
|-----------------------------------------------------------------|




HIGHWAY SONG SOLO

|----10-12-----10----12-10----10-12---10---12-10-|
|-10--------10----10--------9-------9----9-------|
|------------------------------------------------|
|------------------------------------------------|
|------------------------------------------------|
|------------------------------------------------|

|----13-12-----13----13-12-----13-12-----13----13-12-|
|-11--------11----11--------10--------10----10-------|
|----------------------------------------------------|
|----------------------------------------------------|
|----------------------------------------------------|
|----------------------------------------------------|



GOODBYE BLUE SKY

|----------------|----------------|----------------|----------------|
|-------0--------|-------0--------|-------0--------|-------0--------|
|---4------4---4-|---4------4---4-|---4------4---4-|---4------4-----|
|-5---5------5---|-5---5------5---|-5---5------5---|-5---5------5-0-|
|----------------|----------------|----------------|----------------|



|---------|--------|--------|--------|--------|--------|--------|--------|
|---------|--------|--------|--------|--------|--------|--------|--------|
|-----0---|----0---|----0---|----0---|----0---|----0---|----0---|----0---|
|---4---4-|--4---4-|--4---4-|--4---4-|--4---4-|--4---4-|--4---4-|--4-----|
|-2-------|2-------|2-------|2-------|2-------|2-------|2-------|2-----0-|
|---------|--------|--------|--------|--------|--------|--------|--------|



|---------|--------|--------|--------|
|---------|--------|--------|--------|
|-----0---|----0---|----0---|----0---|
|---4---4-|--4---4-|--4---4-|--4-----|
|-5-------|5-------|5-------|5-----0-|
|---------|--------|--------|--------|


|---------|--------|--------|--------|
|---------|--------|--------|--------|
|-----0---|----0---|----0---|----0---|
|---4---4-|--4---4-|--4---4-|--4-----|
|-2-------|2-------|2-------|2-----0-|
|---------|--------|--------|--------|


|-----------------------------------|--------------------------------|
|-----------------------------------|--------------------------------|
|-----5---5-------4-4---------------|--5---5-------4-4-4-------------|
|-------------2-------2---2---2---2-|----------2-----------2---2---2-|
|-0-----0---0---0-------0---0---0---|0---0---0---0-------0---0---0---|
|---0-------------------------------|--------------------------------|

|--------------------------------|
|--------------------------------|
|--5---5-------4-4-----4---5---6-|
|----------2-------2-------------|
|0---0---0---0-------0---0---0---|
|--------------------------------|


|----------------|----------------|----------------|----------------|
|----------------|----------------|----------------|----------------|
|-------0--------|-------0--------|-------0--------|-------0--------|
|---4------4---4-|---4------4---4-|---4------4---4-|---4------4---4-|
|-5---5------5---|-5---5------5---|-5---5------5---|-5---5------5---|
|----------------|----------------|----------------|----------------|



|---------|--------|--------|--------|--------|--------|--------|--------|
|---------|--------|--------|--------|--------|--------|--------|--------|
|-----0---|----0---|----0---|----0---|----0---|----0---|----0---|----0---|
|---4---4-|--4---4-|--4---4-|--4---4-|--4---4-|--4---4-|--4---4-|--4-----|
|-5-------|5-------|5-------|5-------|5-------|5-------|5-------|5-----0-|
|---------|--------|--------|--------|--------|--------|--------|--------|



DRUGS

-------------------------------------
3-3-3--3-3--3-3-3--------------------
2-2-2--0-0--2-2-2--------------------
0-0-0--0-0--0-0-0--------------------
-------------------------------------
-------------------------------------

-------------------------------------
3-3-3--3-3--3-3-3--------------------
2-2-2--0-0--2-2-2--------------------
0-0-0--0-0--0-0-0--------------------
-------------------------------------
-------------------------------------

-------------------------------------
3-3-3--3~~--3-3-3--3-3--3-3-3--3-3---
2-2-2--0~~--2-2-2--0-0--2-2-2--0-0---
0-0-0--0~~--0-0-0--0-0--0-0-0--0-0---
-------------------------------------
-------------------------------------


DEER DANCE SOLO


|-6-5-----8-6-5---|
|-----6-3-------6-|
|-----------------|
|-----------------|
|-----------------|
|-----------------| repeat 3X




|-6-5-----------------------------------8~~~~~~~10~~~~~12~~~~10~~~~~8~~~~5~~~~-|
|-----6--11-10---------------11~~~~~~~~~---------------------------------------|
|------3-------12---12~~~~~~~--------------------------------------------------|
|------------------------------------------------------------------------------|
|------------------------------------------------------------------------------|
|-------------------------



ATWA 

|---------------------------------------------------|
|---------------------------------------------------|
|-----3-----2-----5-----7------8------7-----5-----3-|
|---------------------------------------------------|
|---------------------------------------------------|
|-05---5\3---3/7---7/8---8/10---10\8---8\7---7\5----|

Thanks, Thats All





Comments


Popular System Of A Down tabs & chords
Shimmy Bass Tabs
Atwa Complete Tabs
Bubbles 2 Tabs
Johnny 2 Tabs
NüGuns Tabs
Pig 1 Tabs
Science 2 Tabs
Storages Tabs
Sugar Intro Tabs
Chop Suey Ukulele


Song lyrics



↑ Back to top | Tablatures and chords are parodies/interpretations of the original songs. You may use it for private study, scholarship, research or language learning purposes only
© 2014 AZChords.com Contact us | Privacy policy | DMCA | Add/correct tabs | Request tabs | Top 50 tabs