» » »

Sunrise Avenue, Fairytale Gone Bad Tabs (ver.2)

Artists:  A B C D E F G H I J K L M N O P Q R S T U V W X Y Z # 

Fairytale Gone Bad Tabs (ver.2)

Sunrise Avenue Tabs
 Rating:
4/5 (4 votes)
Fairytale Gone Bad lessons Tabs too difficult? Try these video lessons and learn fast
1
                Note that guitar 2 uses capo on the 1st fret, the first guitar does not.
The chords listed are relative to the capo and they only work as a help
to how to put your fingers playing the second guitar.
I don't know if Dsus/F# is a correct term, but it is meant as 200233,
to point out you only need to move to fingers when switching from playing
G (as 320033).

Intro:        No guitar
Verse 1:      No guitar
Pre-Chorus 1: No guitar
Chorus 1:     No guitar

Verse 2:
 e||----------------------------------|----------------------------------|
 B||----------------------------------|----------------------------------|
 G||*---------------------------------|-6-6-6-6-6-6-6-6-6-6-6-6-6-6-6-6--|
 D||*-8-8-8-8-8-8-8-8-4-4-4-4-4-4-4-4-|-6-6-6-6-6-6-6-6-6-6-6-6-6-6-6-6--|
 A||--8-8-8-8-8-8-8-8-4-4-4-4-4-4-4-4-|-4-4-4-4-4-4-4-4-4-4-4-4-4-4-4-4--|
 E||--6-6-6-6-6-6-6-6-2-2-2-2-2-2-2-2-|----------------------------------|
  |   Am              F                 C
eb||----------------------------------|----------------------------------|
Bb||----------------------------------|----------------------------------|
Gb||*-----2-----2---------2-----2-----|-----0-----0---------0-----0------|
Db||*---2-----2-----2-----------------|---2-----2-----2---2-----2-----2--|
Ab||--0-----0-----0-----3-----3-----3-|-3-----3-----3---3-----3-----3----|
Eb||------------------1-----1-----1---|----------------------------------|

 e||----------------------------------|----------------------------------|
 B||----------------------------------|----------------------------------|
 G||----------------------------------|---------------------------------*|
 D||--6-6-6-6-6-6-6-6-5-5-5-5-5-5-5-5-|-8-8-8-8-8-8-8-8-8-8-8-8-8-8-8-8-*|
 A||--6-6-6-6-6-6-6-6-6-6-6-6-6-6-6-6-|-8-8-8-8-8-8-8-8-8-8-8-8-8-8-8-8--|
 E||--4-4-4-4-4-4-4-4-3-3-3-3-3-3-3-3-|-6-6-6-6-6-6-6-6-6-6-6-6-6-6-6-6--|
  |   G               Dsus/F#           Am
eb||----------------------------------|----------------------------------|
Bb||----------------------------------|----------------------------------|
Gb||------0-----0---------2-----2-----|-----2-----2---------2-----2-----*|
Db||----------------------------------|---2-----2-----2---2-----2-----2-*|
Ab||----2-----2-----2---0-----0-----0-|-0-----0-----0---0-----0-----0----|
Eb||--3-----3-----3---2-----2-----2---|----------------------------------|

Pre-Chorus 2:
 e||----------------------------------|----------------------------------|
 B||----------------------------------|----------------------------------|
 G||----------------6---6-6-----------|---------------6---6-6------------|
 D||--4-4-4-4-4-4-4-6---6-6-6---6-6-6-|-4-4-4-4-4-4-4-6---6-6-6---6-6-6--|
 A||--4-4-4-4-4-4-4-4---4-4-6---6-6-6-|-4-4-4-4-4-4-4-4---4-4-6---6-6-6--|
 E||--2-2-2-2-2-2-2---------4---4-4-4-|-2-2-2-2-2-2-2---------4---4-4-4--|
  |   F             C       G           F             C       G
eb||----------------------------------|----------------------------------|
Bb||----------------------------------|----------------------------------|
Gb||------2-----2---------0-----0-----|-----2-----2---------0-----0------|
Db||--------------------2-------------|-------------------2--------------|
Ab||----3-----3-----3---------2-----2-|---3-----3-----3---------2-----2--|
Eb||--1-----1-----1---------3-----3---|-1-----1-----1---------3-----3----|

 e||----------------------------------|----------------------------------|
 B||----------------------------------|----------------------------------|
 G||----------------6---6-6-----------|----------------------------------|
 D||--4-4-4-4-4-4-4-6---6-6-6---6-6-6-|-4-4-4-4-4-4-4-4-6-6-6-6-6-6-6-6--|
 A||--4-4-4-4-4-4-4-4---4-4-6---6-6-6-|-4-4-4-4-4-4-4-4-6-6-6-6-6-6-6-6--|
 E||--2-2-2-2-2-2-2---------4---4-4-4-|-2-2-2-2-2-2-2-2-4-4-4-4-4-4-4-4--|
  |   F             C       G           F               G
eb||----------------------------------|----------------------------------|
Bb||----------------------------------|----------------------------------|
Gb||------2-----2---------0-----0-----|-----2-----2---------0-----0------|
Db||--------------------2-------------|----------------------------------|
Ab||----3-----3-----3---------2-----2-|---3-----3-----3---2-----2-----2--|
Eb||--1-----1-----1---------3-----3---|-1-----1-----1---3-----3-----3----|

Chorus 2:
e|---------------------------------|---------------------------------|
B|---------------------------------|---------------------------------|
G|---------------------------------|---------------------------------|
D|-8-8-8-8-8-8-8-8-8-8-8-8-8-8-8-8-|-4-4-4-4-4-4-4-4-4-4-4-4-4-4-4-4-|
A|-8-8-8-8-8-8-8-8-8-8-8-8-8-8-8-8-|-4-4-4-4-4-4-4-4-4-4-4-4-4-4-4-4-|
E|-6-6-6-6-6-6-6-6-6-6-6-6-6-6-6-6-|-2-2-2-2-2-2-2-2-2-2-2-2-2-2-2-2-|

e|---------------------------------|---------------------------------|
B|---------------------------------|---------------------------------|
G|-----------------6-6-6-6-6-6-6-6-|---------------------------------|
D|-6-6-6-6-6-6-6-6-6-6-6-6-6-6-6-6-|-4-4-4-4-4-4-4-4-4-4-4-6---6-6-6-|
A|-6-6-6-6-6-6-6-6-4-4-4-4-4-4-4-4-|-4-4-4-4-4-4-4-4-4-4-4-6---6-6-6-|
E|-4-4-4-4-4-4-4-4-----------------|-2-2-2-2-2-2-2-2-2-2-2-4---4-4-4-|

e|---------------------------------|---------------------------------|
B|---------------------------------|---------------------------------|
G|---------------------------------|---------------------------------|
D|-8-8-8-8-8-8-8-8-8-8-8-8-8-8-8-8-|-4-4-4-4-4-4-4-4-4-4-4-4-4-4-4-4-|
A|-8-8-8-8-8-8-8-8-8-8-8-8-8-8-8-8-|-4-4-4-4-4-4-4-4-4-4-4-4-4-4-4-4-|
E|-6-6-6-6-6-6-6-6-6-6-6-6-6-6-6-6-|-2-2-2-2-2-2-2-2-2-2-2-2-2-2-2-2-|

e|---------------------------------|---------------------------------|
B|---------------------------------|---------------------------------|
G|-----------------6-6-6-6-6-6-6-6-|---------------------------------|
D|-6-6-6-6-6-6-6-6-6-6-6-6-6-6-6-6-|-4-4-4-4-4-4-4-4-4-4-4-8---8-8-8-|
A|-6-6-6-6-6-6-6-6-4-4-4-4-4-4-4-4-|-4-4-4-4-4-4-4-4-4-4-4-8---8-8-8-|
E|-4-4-4-4-4-4-4-4-----------------|-2-2-2-2-2-2-2-2-2-2-2-6---6-6-6-|

Chorus 3:
 e||---------------------------------|---------------------------------|
 B||---------------------------------|---------------------------------|
 G||---------------------------------|---------------------------------|
 D||-8-8-8-8-8-8-8-8-8-8-8-8-8-8-8-8-|-4-4-4-4-4-4-4-4-4-4-4-4-4-4-4-4-|
 A||-8-8-8-8-8-8-8-8-8-8-8-8-8-8-8-8-|-4-4-4-4-4-4-4-4-4-4-4-4-4-4-4-4-|
 E||-6-6-6-6-6-6-6-6-6-6-6-6-6-6-6-6-|-2-2-2-2-2-2-2-2-2-2-2-2-2-2-2-2-|
  |
eb||-5-5-5-5-5-5-5-5-5-5-5-5-5-5-5-5-|-1-1-1-1-1-1-1-1-1-1-1-1-1-1-1-1-|
Bb||-5-5-5-5-5-5-5-5-5-5-5-5-5-5-5-5-|-1-1-1-1-1-1-1-1-1-1-1-1-1-1-1-1-|
Gb||---------------------------------|---------------------------------|
Db||---------------------------------|---------------------------------|
Ab||---------------------------------|---------------------------------|
Eb||---------------------------------|---------------------------------|

 e||---------------------------------|---------------------------------|
 B||---------------------------------|---------------------------------|
 G||-----------------6-6-6-6-6-6-6-6-|---------------------------------|
 D||-6-6-6-6-6-6-6-6-6-6-6-6-6-6-6-6-|-4-4-4-4-4-4-4-4-4-4-4-6---6-6-6-|
 A||-6-6-6-6-6-6-6-6-4-4-4-4-4-4-4-4-|-4-4-4-4-4-4-4-4-4-4-4-6---6-6-6-|
 E||-4-4-4-4-4-4-4-4-----------------|-2-2-2-2-2-2-2-2-2-2-2-4---4-4-4-|
  |
eb||-3-3-3-3-3-3-3-3-3-3-3-3-3-3-3-3-|-1-1-1-1-1-1-1-1-1-1-1-3---3-3-3-|
Bb||-3-3-3-3-3-3-3-3-1-1-1-1-1-1-1-1-|-1-1-1-1-1-1-1-1-1-1-1-3---3-3-3-|
Gb||---------------------------------|---------------------------------|
Db||---------------------------------|---------------------------------|
Ab||---------------------------------|---------------------------------|
Eb||---------------------------------|---------------------------------|

 e||---------------------------------|---------------------------------|
 B||---------------------------------|---------------------------------|
 G||---------------------------------|---------------------------------|
 D||-8-8-8-8-8-8-8-8-8-8-8-8-8-8-8-8-|-4-4-4-4-4-4-4-4-4-4-4-4-4-4-4-4-|
 A||-8-8-8-8-8-8-8-8-8-8-8-8-8-8-8-8-|-4-4-4-4-4-4-4-4-4-4-4-4-4-4-4-4-|
 E||-6-6-6-6-6-6-6-6-6-6-6-6-6-6-6-6-|-2-2-2-2-2-2-2-2-2-2-2-2-2-2-2-2-|
  |
eb||-5-5-5-5-5-5-5-5-5-5-5-5-5-5-5-5-|-1-1-1-1-1-1-1-1-1-1-1-1-1-1-1-1-|
Bb||-5-5-5-5-5-5-5-5-5-5-5-5-5-5-5-5-|-1-1-1-1-1-1-1-1-1-1-1-1-1-1-1-1-|
Gb||---------------------------------|---------------------------------|
Db||---------------------------------|---------------------------------|
Ab||---------------------------------|---------------------------------|
Eb||---------------------------------|---------------------------------|

 e||---------------------------------|---------------------------------|
 B||---------------------------------|---------------------------------|
 G||-----------------6-6-6-6-6-6-6-6-|---------------------------------|
 D||-6-6-6-6-6-6-6-6-6-6-6-6-6-6-6-6-|-4-4-4-4-4-4-4-4-4-4-4-8---8-8-8-|
 A||-6-6-6-6-6-6-6-6-4-4-4-4-4-4-4-4-|-4-4-4-4-4-4-4-4-4-4-4-8---8-8-8-|
 E||-4-4-4-4-4-4-4-4-----------------|-2-2-2-2-2-2-2-2-2-2-2-6---6-6-6-|
  |
eb||-3-3-3-3-3-3-3-3-3-3-3-3-3-3-3-3-|-1-1-1-1-1-1-1-1-1-1-1-5---5-5-5-|
Bb||-3-3-3-3-3-3-3-3-1-1-1-1-1-1-1-1-|-1-1-1-1-1-1-1-1-1-1-1-5---5-5-5-|
Gb||---------------------------------|---------------------------------|
Db||---------------------------------|---------------------------------|
Ab||---------------------------------|---------------------------------|
Eb||---------------------------------|---------------------------------|

Outro:
 e||—----|
 B||-----|
 G||-----|
 D||-----|
 A||-----|
 E||—----|
  |
eb||—5~~-|
Bb||-----|
Gb||-----|
Db||-----|
Ab||-----|
Eb||—----|

LYRICS:
-------
[Verse 1]
This is the end you know
Lady, the plans we had went all wrong
We ain't nothing but fight and shout and tears

We got to a point I can't stand
I've had it to the limit. I can't be your man
I ain't more than a minute away from walking

[Pre-Chorus 1]
We can't cry the pain away
We can't find a need to stay
I slowly realized there's nothing on our side

[Chorus 1]
Out of my life, Out of my mind
Out of the tears we can't deny
We need to swallow all our pride
And leave this mess behind
Out of my head, Out of my bed
Out of the dreams we had, they're bad
Tell them it's me who made you sad
Tell them the fairytale gone bad

[Verse 2]
Another night and I bleed
They all make mistakes and so did we
But we did something we can never turn back right

Find a new one to fool
Leave and don't look back. I won't follow
We have nothing left. It's the end of our time

[Pre-Chorus 2]
We can't cry the pain away
We can't find a need to stay
There's no more rabbits in my hat to make things right

[Chorus 2]
Out of my life, Out of my mind
Out of the tears we can't deny
We need to swallow all our pride
And leave this mess behind
Out of my head, Out of my bed
Out of the dreams we had, they're bad
Tell them it's me who made you sad
Tell them the fairytale gone bad

[Chorus 3]
Out of my life, Out of my mind
Out of the tears we can't deny
We need to swallow all our pride
And leave this mess behind
Out of my head, Out of my bed
Out of the dreams we had, they're bad
Tell them it's me who made you sad
Tell them the fairytale gone bad

[Outro]
Tell them the fairytale gone bad
Tell them the fairytale gone bad
            
Submit corrections

comments powered by Disqus
↑ Back to top | Sunrise Avenue Tabs for Fairytale Gone Bad. Lyrics for acoustic guitar and electric guitar. 1 Tablatures and chords are parodies/interpretations of the original songs. You may use it for private study, scholarship, research or language learning purposes only