» » »

Sunrise Avenue, Fairytale Gone Bad Bass tabs (ver.1)

Artists:  A B C D E F G H I J K L M N O P Q R S T U V W X Y Z # 

Fairytale Gone Bad Bass tabs (ver.1)

Sunrise Avenue Tabs
 Rating:
3.5/5 (8 votes)
Fairytale Gone Bad lessons Tabs too difficult? Try these video lessons and learn fast
                Sunrise Avenue
Comment: My first tab ever, so please rate fair!


Intro : Guitar only, start playing at 1:15



Verse

G-----------------------------------------------------------------------------------------|2x
D-----------------------------------------------------------------------------------------|
A--------------------------4-4-4-4-4-4-4-4-4-4-4-4-4--------------------------------------|
E--6-6-6-6-6-6-2-2-2-2-2-2---------------------------4-4-4-4-4-4-1-1-1-1-1-1-6-6-6-6-6-6--|



Pre-Chorus

G-------------------------------------------|
D-------------------------------------------| x3
A----------------------4-4-4-4-4------------|
E--2-2-2-2-2-2-2-2-2-2-----------4-4-4-4-4--|



G-------------------------------------------|
D-------------------------------------------|
A-------------------------------------------|
E--2-2-2-2-2-2-2-2-2-2-4-4-4-4-4-4-4-4-4-4--|



Chorus

G---------------------------------------------------------------------------------------|
D---------------------------------------------------------------------------------------|
A---------------------------------------------------------------------------------------|
E--6-6-6-6-6-6-6-2-2-2-2-2-2-2-2-2-2-4-4-4-4-4-4-4-1-1-1-1-1-1-1-2-2-2-2-2-2-2-4-4-4-4--|



End

G---------------------------------------|
D---------------------------------------|
A---------------------------------------|
E--6-6-6-6-6-6-6-6-6-6-6-6-6-6-6-6-(~)--|
            
Submit corrections

comments powered by Disqus
↑ Back to top | Sunrise Avenue Bass for Fairytale Gone Bad. Lyrics for acoustic guitar and electric guitar. Tablatures and chords are parodies/interpretations of the original songs. You may use it for private study, scholarship, research or language learning purposes only