» » »

Sunrise Avenue, Fairytale Gone Bad Tabs (ver.1)

Artists:  A B C D E F G H I J K L M N O P Q R S T U V W X Y Z # 

Fairytale Gone Bad Tabs (ver.1)

Sunrise Avenue Tabs
 Rating:
4/5 (17 votes)
Fairytale Gone Bad lessons Tabs too difficult? Try these video lessons and learn fast
                Intro:

(u can play it muted or only the E string open)


e----------------------------------------------------------------------------|
B----------------------------------------------------------------------------|
G----------------------------------------------------------------------------|
D--8-8-8-8-8-8--4-4-4-4-4-4--6-6-6-6-6-6-6-6-6-6-6-6-6--4-4-4-3-3-3-8-8-8----|
A--8-8-8-8-8-8--4-4-4-4-4-4--6-6-6-6-6-6-6-6-6-6-6-6-6--4-4-4-3-3-3-8-8-8----|
E--6-6-6-6-6-6--2-2-2-2-2-2--4-4-4-4-4-4-4-4-4-4-4-4-4--2-2-2-1-1-1-6-6-6----|


Pre Chorus:

e------------------------------|  3x
B------------------------------|
G-------------6-6--------------|
D--4-4--4-4-4-6-6-6-6-6-6-6----|
A--4-4--4-4-4-4-4-6-6-6-6-6----|
E--2-2--2-2-2-----4-4-4-4-4----|

4. time:

e-----------------------------|
B-----------------------------|
G-----------------------------|
D--4-4-4-4-4-4--6-6-6-6-6-6---|
A--4-4-4-4-4-4--6-6-6-6-6-6---|
E--2-2-2-2-2-2--4-4-4-4-4-4---|

Chorus:
(clean)

e--------------------------------------------------------------------------| 2x
B--------------------------------------------------------------------------|
G--------------------------------------------------------------------------|
D--8-8-8-8-8-8--4-4-4-4-4-4--6-6-6-6-6-6-6--3-3-3-3--4-4-4-4-4-4--6-6-6----|
A--8-8-8-8-8-8--4-4-4-4-4-4--6-6-6-6-6-6-6--3-3-3-3--4-4-4-4-4-4--6-6-6----|
E--6-6-6-6-6-6--2-2-2-2-2-2--4-4-4-4-4-4-4--1-1-1-1--2-2-2-2-2-2--4-4-4----|

Verse:
(clean, u can pick the chords


e-(6)----------(2)----------(4)------------------------(2)---(1)---(6)-------|
B-(6)----------(2)----------(4)------------------------(2)---(1)---(6)-------|
G-(7)----------(3)----------(5)------------------------(3)---(2)---(7)-------|
D--8-8-8-8-8-8--4-4-4-4-4-4--6-6-6-6-6-6-6-6-6-6-6-6-6--4-4-4-3-3-3-8-8-8----|
A--8-8-8-8-8-8--4-4-4-4-4-4--6-6-6-6-6-6-6-6-6-6-6-6-6--4-4-4-3-3-3-8-8-8----|
E--6-6-6-6-6-6--2-2-2-2-2-2--4-4-4-4-4-4-4-4-4-4-4-4-4--2-2-2-1-1-1-6-6-6----|

Pre Chorus:

e------------------------------|  3x
B------------------------------|
G-------------6-6--------------|
D--4-4--4-4-4-6-6-6-6-6-6-6----|
A--4-4--4-4-4-4-4-6-6-6-6-6----|
E--2-2--2-2-2-----4-4-4-4-4----|

4. time:

e-----------------------------|
B-----------------------------|
G-----------------------------|
D--4-4-4-4-4-4--6-6-6-6-6-6---|
A--4-4-4-4-4-4--6-6-6-6-6-6---|
E--2-2-2-2-2-2--4-4-4-4-4-4---|


Chorus:
(distortion)

e--------------------------------------------------------------------------| 4x
B--------------------------------------------------------------------------|
G--------------------------------------------------------------------------|
D--8-8-8-8-8-8--4-4-4-4-4-4--6-6-6-6-6-6-6--3-3-3-3--4-4-4-4-4-4--6-6-6----|
A--8-8-8-8-8-8--4-4-4-4-4-4--6-6-6-6-6-6-6--3-3-3-3--4-4-4-4-4-4--6-6-6----|
E--6-6-6-6-6-6--2-2-2-2-2-2--4-4-4-4-4-4-4--1-1-1-1--2-2-2-2-2-2--4-4-4----|


Ending:

E—-6---  let ring
B--6---|
G--7---|
D--8---|
A--8---|
E—-6---
            
Submit corrections

comments powered by Disqus
↑ Back to top | Sunrise Avenue Tabs for Fairytale Gone Bad. Lyrics for acoustic guitar and electric guitar. Tablatures and chords are parodies/interpretations of the original songs. You may use it for private study, scholarship, research or language learning purposes only