» » »

Suicidal Tendencies, Go Skate Bass tabs (ver.2)

Artists:  A B C D E F G H I J K L M N O P Q R S T U V W X Y Z # 

Go Skate Bass tabs (ver.2)

Suicidal Tendencies Tabs
 Rating:
4.3/5 (6 votes)
Go Skate lessons Tabs too difficult? Try these video lessons and learn fast
                -------------------------------------------------------------------------------
			     GO SKATE! - Suicidal Tendencies
-------------------------------------------------------------------------------

This is what i play and it sounds right

T=slap
p=pop
x=dead note
its not perfect but its a start and the intro is pretty close to right

i put the verse and chorus as well
then for the rest your on your own


Tuning: standard
intro
                                               x4
G|---------------------5-----4------3---------------------------------------|
D|--------------------------------------------------------------------------|
A|--0-0-7p0-6p0-5p0--3---3p0----2-1-----------------------------------------|
E|--------------------------------------------------------------------------|
    T T T   T   T    T P T   P  T T P

G|--------------------------------------------------------------------------|
D|-------5-----5---5----------------5-----5---5-----------------------------|
A|--------------------------------------------------------------------------|
E|---3-3---3-3---3---x-x-1---2--3-3---3-3---3----3--------------------------|

verse
                                                 x8
G|---------------------------------------------------------------------------|
D|---------------------------------------------------------------------------|
A|----00000000000-303--------------------------------------------------------|
E|---------------------------------------------------------------------------|

then for the bridge type bit just slap and pop on the G and the octave I know its not 
helpful just do that and try accent on the snare

verse x4

chorus
                               x2   then
G|---------------------------------------------------------------------------|
D|---------------------------------------------------------------------------|
A|----00000000-22222222-3333-2222--------------------------------------------|
E|------------------------------------------0--------------------------------|

then that repeats and there is the crazy fill bit guitar solo etc i might do that one day
            
Submit corrections

comments powered by Disqus
↑ Back to top | Suicidal Tendencies Bass for Go Skate. Lyrics for acoustic guitar and electric guitar. Tablatures and chords are parodies/interpretations of the original songs. You may use it for private study, scholarship, research or language learning purposes only