» » »

Suicidal Tendencies, Go Skate Tabs (ver.1)

Artists:  A B C D E F G H I J K L M N O P Q R S T U V W X Y Z # 

Go Skate Tabs (ver.1)

Suicidal Tendencies Tabs
Rating:
5/5 (1 vote)
Go Skate lessons Tabs too difficult? Try these video lessons and learn fast
                
Riff A
e|----------------------|----------------------------------------|
b|----------------------|----------------------------------------|
g|----------------------|----------------------------------------|
d|-10-10-10-9-9-9-8-8-7-|-10-10-10-9-9-9-8-8-5~-------3-4-5~-----|
a|-10-10-10-9-9-9-8-8-7-|-10-10-10-9-9-9-8-8-5~-------3-4-5~-----|
E|-8--8--8--7-7-7-6-6-5-|-8--8--8--7-7-7-6-6-3~-1-1-1-1-2-3~//\\-|
                                                .....
Riff B
e||---------------------||--------------------------------------|
b||---------------------||--------------------------------------|
g||---------------5---5-||-------------------5/7\5--------------|
d||-----7-5/7-7---5---5-||-----7-5/7-7-------5/7\5--------------|
a||-0-0-7-5/7-7-0-3-0-3-||-0-0-7-5/7-7-0-0-0-3/5\3--------------|
E||-----5-3/5-5---------||-----5-3/5-5--------------------------|
    ...         .   .      ...         .....
Riff C
e|---------------------------------|
b|---------------------------------|
g|---------------------------------|
d|-5-5-5-4-4-4-5-5-5-4-4-4-5-5-6-6-|
a|-5-5-5-4-4-4-5-5-5-4-4-4-5-5-6-6-|
E|-3-3-3-2-2-2-3-3-3-2-2-2-3-3-4-4-|
   .......................
Riff D
e|--------------------------------------------------|
b|--------------------------------------------------|
g|--------------------------------------------------|
d|-7-----------9-----------10-----9-----7-----------|
a|-7-0-0-0-0-0-9-0-0-0-0-0-10-0-0-9-0-0-7-0-0-0-0-0-|
E|-5-----------7-----------8------7-----5-----------|
     .........   .........    ...   ...   .........
e|-------------------------------------------------------|
b|-------------------------------------------------------|
g|-------------------------------------------------------|
d|-7-----------9-----------10-----9-----7-7-7-5-4-2~-----|
a|-7-0-0-0-0-0-9-0-0-0-0-0-10-0-0-9-0-0-7-7-7-5-4-2~-----|
E|-5-----------7-----------8------7-----5-5-5-3-2-0~-//\\|
     .........   .........    ...   ...
Riff E

e|---------------------------------|
b|---------------------------------|
g|-----------------5-5-5-4-4-4-3-3-|
d|-----------------5-5-5-4-4-4-3-3-|
a|-0-0-3-0-3-2-1-0-3-3-3-2-2-2-1-1-|
E|---------------------------------|
   ...............
            

comments powered by Disqus
↑ Back to top | Suicidal Tendencies Tabs for Go Skate. Lyrics for acoustic guitar and electric guitar. Tablatures and chords are parodies/interpretations of the original songs. You may use it for private study, scholarship, research or language learning purposes only