» » »

Suicidal Tendencies, Go Skate Bass tabs (ver.1)

Artists:  A B C D E F G H I J K L M N O P Q R S T U V W X Y Z # 

Go Skate Bass tabs (ver.1)

Suicidal Tendencies Tabs
Rating:
0/5 (0 votes)
Go Skate lessons Tabs too difficult? Try these video lessons and learn fast
                Suicidal Tendencies - Go Skate!
Album - Prime Cuts

Intro Riff x4
G|-----------------5-----4-----3---|
D|---------------------------------|
A|-0-0-7-0-6-5-0-3---0-2---0-1---0-|
E|---------------------------------|

Intro Fill
G|---------------------------------|---------------------------------|
D|-----5-------5-------5-----------|-----5-------5-------5-----------|
A|---------------------------------|---------------------------------|
E|-3-3---3-3-3---3-3-3---3p0---1---|-3-3---3-3-3---3-3-3---3-3---4---|

Verse x2
G|---------------------------------|---------------------------------|
D|---------------------------------|---------------------------------|
A|-0-0-0---0-0---0-0---0-3---0-3---|-0-0-0---0-0---0-0---0-3---0-3---|
E|---------------------------------|---------------------------------|

G|---------------------------------|---------------------------------|
D|---------------------------------|---------------------------------|
A|-0-0-0---0-0---0-0---0-3---0-3---|-0-0-0---0-0---0-0---0-3-3h5p3---|
E|---------------------------------|---------------------------------|

Fill 1
G|---------------------------------|
D|---5-----4-----5-----4-----5-----|
A|---------------------------------|
E|-3-----2-----3-----2-----3---3/--|

Verse x1
Chorus x2
G|---------------------------------|---------------------------------|
D|---------------------------------|---------------------------------|
A|-0---0-0-0-0-0-0-2---2-2-2-2-2-2-|-3---3-3-2---2-2-0---0-0-0-0-7\--|
E|---------------------------------|---------------------------------|

Verse x1
Chorus x2
Fill 2
G|-------------------------------------------|
D|-------------------------------------------|
A|-------------------------------------------|
E|-0-------------0h10p0-0h10p0-0h10p0-0h10~--|

Intro Riff x4
Solo (Verse x2)
Verse x1
Chorus x2
Verse x1
Fill 1
Intro Riff x4
Outro x8
G|---------------------------------|
D|---------------------------------|
A|-0-0-7-0-6-5-0-3-3-3-2-2-2-1-1-1-|
E|---------------------------------|

G|---------------------------------|
D|---------------------------------|
A|---------------------------------| Pretty Simple
E|-5\---(0)------------------------| Enjoy
            

comments powered by Disqus
↑ Back to top | Suicidal Tendencies Bass for Go Skate. Lyrics for acoustic guitar and electric guitar. Tablatures and chords are parodies/interpretations of the original songs. You may use it for private study, scholarship, research or language learning purposes only