» » »

See That Girl Tabs (ver.1)

Artists:  A B C D E F G H I J K L M N O P Q R S T U V W X Y Z # 

See That Girl Tabs (ver.1)

Suede
Rating:
0/5 (0 votes)

Hard to play? Try these video lessons and learn fast.
                SEE THAT GIRL (from "Electricity" B-side by SUEDE)
-------------

I hope this file is alright because it's sometimes difficult to
hear the right chords.


*INTRO:it's actually played by a strange keybord but if you want to=20
play it with the guitar here is the tab.
----------------------I
-(6)---6--8------6----I(x4)
-----7------7--6---7--I
----------------------I
----------------------I
----------------------I
Then come the chords at the 3rd time: Dm, Gm, A, Dm (x2)      

*VERSE1: Dm, Gm, Am7, Dm, Dsus2 (xx0320)
         Dm, Gm, A, Dm, Dsus2


*CHORUS1: F, C, F, Am (577655)
          Bb, C, Am (577655), C


*VERSE2: Dm, Gm, Am7, Dsus2
         Dm, Gm, A, Dm, Dsus2


*CHORUS2:Same chords but you have a tab here which is almost like that:

  F   C                  F  Am                  Bb
--1----------------------1----------5--5-----------------8--6---I
--1-----------8--8-------1-----5---------5---------6----------6-I
--2-----9----------9-----2----------------------------7---------I
--3--10---10---------10--3--7----7----------5---8---------------I
--3----------------------3--------------------------------------I
--1----------------------1--------------------------------------I

   C                  Am                     C
------------10--8-----------------5-------------------8---------I
------8-----------8------------5----5--------------8----8-------I
---------9------------------5---------5---------9---------9-----I
--10---------------------7--------------7---10--------------10--I
----------------------7-----------------------------------------I

*BRIDGE: It's the same chords as the intro but you have this fill
which sounds almost like that:

  Dm                   Gm                   A                 =20
--------6--5--1--------------5--3-----------------------0------I
-----3-----------3-----------------3-----------2------2---2----I
--2-----------------2-----3-----------3-------------2-------2--I
-----------------------5-----------------5--2-----2------------I
  Dm
----------------1--I
------3-------3----I
----2---2---2------I
--0-------0--------I
-------------------I
-------------------I


CHORUS2


BRIDGE: here you finish on a Dm which is simply strummed.

ENJOY!!
            
Hard to play? Try these video lessons and learn fast. | Correct




comments powered by Disqus
↑ Back to top | Tablatures and chords are parodies/interpretations of the original songs. You may use it for private study, scholarship, research or language learning purposes only