» » »

Suede, Europe Is Our Playground Bass tabs (ver.1)

Artists:  A B C D E F G H I J K L M N O P Q R S T U V W X Y Z # 

Europe Is Our Playground Bass tabs (ver.1)

Suede Tabs
Rating:
0/5 (0 votes)
Hard to play? Try these video lessons and learn fast.
                 
Note: Tune down Half Step! (All Suede songs)

Intro
G |--------------------------------|--------------------------------|
D |--------------------------------|--------------------------------|
A |--------------------------------|--------------------------------|
E |--------------------------------|---------------------------12\--|
 
Verse A
G |--------------------------------|--------------------------------|
D |---------------7----------------|--------------------------------|
A |-------7-7------7------7-7------|-5-7-------------------7-5\8-10-|
E |-5---------------5--------------|-------5-7-----570---0----------|
 
G |-----\10---9--------------------|--------------------------------|
D |---------------7-----\10---9----|---------5-5-------------7------|
A |-5---------------5-------------5|-8-----8-------8-5-7---7---7----|
E |--------------------------------|-----------------------------8-7|
 
Verse B
G |---------------9-9--------------|--------------------------------|
D |-----------7-7-------7-7-9-71079|--------------------------------|
A |-----7-7------------------------|-7---------------------7-5\8-10-|
E |-5------------------------------|-------5-7-----570---0----------|
 

G |-----\10---9--------------------|--------------------------------|
D |---------------7-----\10---9----|---------5-5-------------7------|
A |-5---------------5-------------5|-8-----8-------8-5-7---7---7----|
E |--------------------------------|-----------------------------8-7|
 
Chorus
G |--------------------------------|-----7^8^7----------------------|--------------------------------|
D |---------------5-7-----7-----7--|----------109-------------------|---------5-5-------------7------|
A |-8---------5-7-------------7---7|-5------------------------------|-8-----8-------8-5-7---7---7----|
E |--------------------------------|---------------5---5-5-5-3-3-0--|-----------------------------8-7|
 

Outro
G |--------------------------------|--------------------------------|
D |--------------------------------|--------------------------------|
A |--------------------------------|--------------------------------|
E |05-555-555-555-503-333-333-333-3|01-111-111-111-110-000-000-000-0|
 

[00:22] Intro
[00:34] Verse A 2x
[01:20] Verse B
[01:43] Chorus
[02:00] Verse A
[02:23] Verse B
[02:46] Chorus
[03:03] Outro 2x
[03:27] Chorus
[03:44] Outro 8x
 
            

comments powered by Disqus
↑ Back to top | Suede Bass for Europe Is Our Playground. Lyrics for acoustic guitar and electric guitar. Tablatures and chords are parodies/interpretations of the original songs. You may use it for private study, scholarship, research or language learning purposes only