» » »

Thanx Bass tabs (ver.1)

Artists:  A B C D E F G H I J K L M N O P Q R S T U V W X Y Z # 

Thanx Bass tabs (ver.1)

Sublime
Rating:
0/5 (0 votes)

Hard to play? Try these video lessons and learn fast.
                Just wanted him to know, if he sees this, I'm not trying to copy your steez dude, it's 
easier to see the full tabs then watch your video the whole way through.
"peace, nothing but peace and unity"
Alright lets get on with it...

G|-------------------------------------|
D|------------5h7-7--------------------|
A|--5-5-5h8----------------------------|
E|-------------------------------------|


G|---14--------------------------------|
D|12----12-12----14-----------15-------|
A|-------------12---12-12--13----13-13-|
E|-------------------------------------|


G|---17---17---------------------------|
D|15---15-------17---------------------|
A|-----------15---15-------------------|
E|-------------------------------------|

4th Riff:
G|-------------------------------------|
D|--7----------------------------------|
A|5--5-5---7--------------888----------|
E|-------5--5-5---6-6-6-6--------------|

G|-------------------------------------|
D|---------2-1-------------------------|
A|4--234-4-----------------------------|
E|-4-----------------------------------|

G|-------------------------------------|
D|----------2-1------------------------|
A|4---4-4-4----------------------------|
E|--4----------------------------------|

G|-------------------------------------|
D|---------5h8-8-----------------------|
A|-5-5--5h8----------------------------|
E|-------------------------------------|

G|------------12h14-12-----------------|
D|12-12-12h15--------------------------|
A|-------------------------------------|
E|-------------------------------------|

G|-------------------------------------|
D|-----3-5-------2---------------------|
A|-5-5-------3-3--3--------------------|
E|---------5---------------------------|

you can figure out the order by listening to the song
            
Hard to play? Try these video lessons and learn fast. | Correct




comments powered by Disqus
↑ Back to top | Tablatures and chords are parodies/interpretations of the original songs. You may use it for private study, scholarship, research or language learning purposes only