» » »

Sublime, Thanx Tabs (ver.1)

Artists:  A B C D E F G H I J K L M N O P Q R S T U V W X Y Z # 

Thanx Tabs (ver.1)

Sublime Tabs
Rating:
0/5 (0 votes)
Hard to play? Try these video lessons and learn fast.
                this is the first half of the song (to 2:30)

theres two parts to this song

pretty much totaly different songs

so I'll treat them that way

main riff

G--------------|
D------3h5/7-7-|
A-5-5-5--------|
E--------------|

second riff

G----14-----------9--------10--------171717--------12-12-|
D-12---12-12-12/7--7-7-7/8----8-8/15-------12-12-12------|
A--------------------------------------------------------|
E--------------------------------------------------------|

third riff

G-------------------|
D-------------------|
A-44-4------44-4-77-|
E------4-77-----4---|


forth riff

G--------------------------|
D--------------------------|
A-4-4-4-4-2-66-------------|
E--------------------------|

fifth riff

G----------------------|
D----------------------|
A---12-12-7-7-8-8--888-|
E-9---9--5-5-6-6-6-----|

sixth riff

G------------------------|
D-----------7-7---8-8----|
A----12-12-----------888-|
E-10------5-----6--------|

to be continued...
            

comments powered by Disqus
↑ Back to top | Sublime Tabs for Thanx. Lyrics for acoustic guitar and electric guitar. Tablatures and chords are parodies/interpretations of the original songs. You may use it for private study, scholarship, research or language learning purposes only