» » »

Thanx Bass tabs (ver.2)

Artists:  A B C D E F G H I J K L M N O P Q R S T U V W X Y Z # 

Thanx Bass tabs (ver.2)

Sublime
Rating:
0/5 (0 votes)

Tabs too difficult? Try these video lessons and learn fast.
                In The Key of: Dm

PLEASE READ!!!!
I know this jam is confusing but this is the best I could do
So the 1st part I tabbed out is the jam they play from (0:00 - 2:40)

1st Part Jam (0:00 - 2:40)
1st Riff:
G|-------------------------------|
D|------------77------------77---|
A|--5-5--888------5-5--888-------|
E|-------------------------------|

2nd Riff:
G|-------------------------------|
D|-------7777--8888--------------|
A|--5555------------8888---------|
E|-------------------------------|

3rd Riff:
G|-------------------------------|
D|-------------------------------|
A|--44--44-22-44---44--22--------|
E|-------------------------------|

4th Riff: 
G|-------------------------------|
D|-------------------------------|
A|--4-444-22-4-444-22------------|
E|-------------------------------|


1st Part: 
1st Riff x 6
2nd Riff x 1

2nd Set:
1st Riff x 4
2nd Riff x 1
3rd Riff x 1
2nd Riff x 1
4th Riff x 1
2nd Riff x 1
3rd Riff x 1

3rd Set
1st Riff x 4
2nd Riff x 1
3rd Riff x 1
2nd Riff x 1
4th Riff x 1
2nd Riff x 1
3rd Riff x 6

Hope this helped :)
Peace In The Middle East!
            
Tabs too difficult? Try these video lessons and learn fast.




comments powered by Disqus
↑ Back to top | Tablatures and chords are parodies/interpretations of the original songs. You may use it for private study, scholarship, research or language learning purposes only